  0
SECTION
  2
HEADER
  9
$ACADVER
  1
AC1009
  9
$EXTMIN
 10
0.0
 20
0.0
 30
0.0
  9
$EXTMAX
 10
1000.0
 20
1000.0
 30
0.0
  9
$FILLMODE
 70
 0
  9
$SPLFRAME
 70
 1
  0
ENDSEC
  0
SECTION
  2
TABLES
  0
TABLE
  2
LAYER
 70
1
  0
LAYER
  2
0
 70
     0
 62
     7
  6
CONTINUOUS
  0
ENDTAB
  0
ENDSEC
  0
SECTION
  2
ENTITIES
  0
LINE
  8
0
 62
     0
 10
0.00553386
 20
0.00558811
 30
0.0
 11
0.00553386
 21
0.608724
 31
0.0
  0
LINE
  8
0
 62
     0
 10
0.00553386
 20
0.608724
 30
0.0
 11
0.194987
 21
0.608724
 31
0.0
  0
LINE
  8
0
 62
     0
 10
0.194987
 20
0.608724
 30
0.0
 11
0.287435
 21
0.597006
 31
0.0
  0
LINE
  8
0
 62
     0
 10
0.287435
 20
0.597006
 30
0.0
 11
0.352431
 21
0.561849
 31
0.0
  0
LINE
  8
0
 62
     0
 10
0.352431
 20
0.561849
 30
0.0
 11
0.391385
 21
0.506782
 31
0.0
  0
LINE
  8
0
 62
     0
 10
0.391385
 20
0.506782
 30
0.0
 11
0.404406
 21
0.437608
 31
0.0
  0
LINE
  8
0
 62
     0
 10
0.404406
 20
0.437608
 30
0.0
 11
0.397353
 21
0.387478
 31
0.0
  0
LINE
  8
0
 62
     0
 10
0.397353
 20
0.387478
 30
0.0
 11
0.376247
 21
0.350315
 31
0.0
  0
LINE
  8
0
 62
     0
 10
0.376247
 20
0.350315
 30
0.0
 11
0.341092
 21
0.326118
 31
0.0
  0
LINE
  8
0
 62
     0
 10
0.341092
 20
0.326118
 30
0.0
 11
0.291883
 21
0.314942
 31
0.0
  0
LINE
  8
0
 62
     0
 10
0.291883
 20
0.314942
 30
0.0
 11
0.347331
 21
0.29975
 31
0.0
  0
LINE
  8
0
 62
     0
 10
0.347331
 20
0.29975
 30
0.0
 11
0.385633
 21
0.272786
 31
0.0
  0
LINE
  8
0
 62
     0
 10
0.385633
 20
0.272786
 30
0.0
 11
0.408149
 21
0.232747
 31
0.0
  0
LINE
  8
0
 62
     0
 10
0.408149
 20
0.232747
 30
0.0
 11
0.41569
 21
0.178168
 31
0.0
  0
LINE
  8
0
 62
     0
 10
0.41569
 20
0.178168
 30
0.0
 11
0.403103
 21
0.108127
 31
0.0
  0
LINE
  8
0
 62
     0
 10
0.403103
 20
0.108127
 30
0.0
 11
0.365343
 21
0.0531683
 31
0.0
  0
LINE
  8
0
 62
     0
 10
0.365343
 20
0.0531683
 30
0.0
 11
0.3074
 21
0.0175239
 31
0.0
  0
LINE
  8
0
 62
     0
 10
0.3074
 20
0.0175239
 30
0.0
 11
0.233669
 21
0.00558811
 31
0.0
  0
LINE
  8
0
 62
     0
 10
0.233669
 20
0.00558811
 30
0.0
 11
0.00553386
 21
0.00558811
 31
0.0
  0
LINE
  8
0
 62
     0
 10
0.168457
 20
0.136447
 30
0.0
 11
0.17665
 21
0.135634
 31
0.0
  0
LINE
  8
0
 62
     0
 10
0.17665
 20
0.135634
 30
0.0
 11
0.182508
 21
0.135634
 31
0.0
  0
LINE
  8
0
 62
     0
 10
0.182508
 20
0.135634
 30
0.0
 11
0.209799
 21
0.139703
 31
0.0
  0
LINE
  8
0
 62
     0
 10
0.209799
 20
0.139703
 30
0.0
 11
0.230957
 21
0.151693
 31
0.0
  0
LINE
  8
0
 62
     0
 10
0.230957
 20
0.151693
 30
0.0
 11
0.244683
 21
0.17041
 31
0.0
  0
LINE
  8
0
 62
     0
 10
0.244683
 20
0.17041
 30
0.0
 11
0.249294
 21
0.194661
 31
0.0
  0
LINE
  8
0
 62
     0
 10
0.249294
 20
0.194661
 30
0.0
 11
0.244683
 21
0.218696
 31
0.0
  0
LINE
  8
0
 62
     0
 10
0.244683
 20
0.218696
 30
0.0
 11
0.230957
 21
0.236817
 31
0.0
  0
LINE
  8
0
 62
     0
 10
0.230957
 20
0.236817
 30
0.0
 11
0.209526
 21
0.248264
 31
0.0
  0
LINE
  8
0
 62
     0
 10
0.209526
 20
0.248264
 30
0.0
 11
0.181315
 21
0.252061
 31
0.0
  0
LINE
  8
0
 62
     0
 10
0.181315
 20
0.252061
 30
0.0
 11
0.168457
 21
0.252061
 31
0.0
  0
LINE
  8
0
 62
     0
 10
0.168457
 20
0.252061
 30
0.0
 11
0.168457
 21
0.136447
 31
0.0
  0
LINE
  8
0
 62
     0
 10
0.168457
 20
0.374349
 30
0.0
 11
0.179362
 21
0.374349
 31
0.0
  0
LINE
  8
0
 62
     0
 10
0.179362
 20
0.374349
 30
0.0
 11
0.225478
 21
0.388021
 31
0.0
  0
LINE
  8
0
 62
     0
 10
0.225478
 20
0.388021
 30
0.0
 11
0.238336
 21
0.40446
 31
0.0
  0
LINE
  8
0
 62
     0
 10
0.238336
 20
0.40446
 30
0.0
 11
0.242676
 21
0.426269
 31
0.0
  0
LINE
  8
0
 62
     0
 10
0.242676
 20
0.426269
 30
0.0
 11
0.228299
 21
0.465549
 31
0.0
  0
LINE
  8
0
 62
     0
 10
0.228299
 20
0.465549
 30
0.0
 11
0.185221
 21
0.478624
 31
0.0
  0
LINE
  8
0
 62
     0
 10
0.185221
 20
0.478624
 30
0.0
 11
0.178222
 21
0.478244
 31
0.0
  0
LINE
  8
0
 62
     0
 10
0.178222
 20
0.478244
 30
0.0
 11
0.168457
 21
0.477864
 31
0.0
  0
LINE
  8
0
 62
     0
 10
0.168457
 20
0.477864
 30
0.0
 11
0.168457
 21
0.374349
 31
0.0
  0
ENDSEC
  0
EOF
