  0
SECTION
  2
HEADER
  9
$ACADVER
  1
AC1009
  9
$EXTMIN
 10
0.0
 20
0.0
 30
0.0
  9
$EXTMAX
 10
1000.0
 20
1000.0
 30
0.0
  9
$FILLMODE
 70
 0
  9
$SPLFRAME
 70
 1
  0
ENDSEC
  0
SECTION
  2
TABLES
  0
TABLE
  2
LAYER
 70
1
  0
LAYER
  2
0
 70
     0
 62
     7
  6
CONTINUOUS
  0
ENDTAB
  0
ENDSEC
  0
SECTION
  2
ENTITIES
  0
LINE
  8
0
 62
     250
 10
26.5753
 20
43.5858
 30
0.0
 11
26.5753
 21
43.5858
 31
0.0
  0
LINE
  8
0
 62
     250
 10
26.5753
 20
43.5858
 30
0.0
 11
26.5753
 21
43.5858
 31
0.0
  0
LINE
  8
0
 62
     142
 10
0.402235
 20
32.5525
 30
0.0
 11
2.66026
 21
32.5525
 31
0.0
  0
LINE
  8
0
 62
     142
 10
2.66026
 20
32.5525
 30
0.0
 11
8.42572
 21
22.3465
 31
0.0
  0
LINE
  8
0
 62
     142
 10
8.42572
 20
22.3465
 30
0.0
 11
8.42572
 21
32.5525
 31
0.0
  0
LINE
  8
0
 62
     142
 10
8.42572
 20
32.5525
 30
0.0
 11
9.91997
 21
32.5525
 31
0.0
  0
LINE
  8
0
 62
     142
 10
9.91997
 20
32.5525
 30
0.0
 11
9.91997
 21
20.2097
 31
0.0
  0
LINE
  8
0
 62
     142
 10
9.91997
 20
20.2097
 30
0.0
 11
7.84076
 21
20.2097
 31
0.0
  0
LINE
  8
0
 62
     142
 10
7.84076
 20
20.2097
 30
0.0
 11
1.87999
 21
30.6892
 31
0.0
  0
LINE
  8
0
 62
     142
 10
1.87999
 20
30.6892
 30
0.0
 11
1.87999
 21
20.2097
 31
0.0
  0
LINE
  8
0
 62
     142
 10
1.87999
 20
20.2097
 30
0.0
 11
0.402235
 21
20.2097
 31
0.0
  0
LINE
  8
0
 62
     142
 10
0.402235
 20
20.2097
 30
0.0
 11
0.402235
 21
32.5525
 31
0.0
  0
LINE
  8
0
 62
     142
 10
29.7793
 20
32.5525
 30
0.0
 11
33.1728
 21
32.5525
 31
0.0
  0
LINE
  8
0
 62
     142
 10
33.1728
 20
32.5525
 30
0.0
 11
33.4712
 21
32.5521
 31
0.0
  0
LINE
  8
0
 62
     142
 10
33.4712
 20
32.5521
 30
0.0
 11
33.7751
 21
32.5494
 31
0.0
  0
LINE
  8
0
 62
     142
 10
33.7751
 20
32.5494
 30
0.0
 11
34.0829
 21
32.5419
 31
0.0
  0
LINE
  8
0
 62
     142
 10
34.0829
 20
32.5419
 30
0.0
 11
34.3936
 21
32.5275
 31
0.0
  0
LINE
  8
0
 62
     142
 10
34.3936
 20
32.5275
 30
0.0
 11
34.7058
 21
32.5035
 31
0.0
  0
LINE
  8
0
 62
     142
 10
34.7058
 20
32.5035
 30
0.0
 11
35.0185
 21
32.4678
 31
0.0
  0
LINE
  8
0
 62
     142
 10
35.0185
 20
32.4678
 30
0.0
 11
35.3303
 21
32.4179
 31
0.0
  0
LINE
  8
0
 62
     142
 10
35.3303
 20
32.4179
 30
0.0
 11
35.6401
 21
32.3517
 31
0.0
  0
LINE
  8
0
 62
     142
 10
35.6401
 20
32.3517
 30
0.0
 11
35.9467
 21
32.2665
 31
0.0
  0
LINE
  8
0
 62
     142
 10
35.9467
 20
32.2665
 30
0.0
 11
36.2486
 21
32.1601
 31
0.0
  0
LINE
  8
0
 62
     142
 10
36.2486
 20
32.1601
 30
0.0
 11
36.5451
 21
32.0303
 31
0.0
  0
LINE
  8
0
 62
     142
 10
36.5451
 20
32.0303
 30
0.0
 11
36.8346
 21
31.8744
 31
0.0
  0
LINE
  8
0
 62
     142
 10
36.8346
 20
31.8744
 30
0.0
 11
37.116
 21
31.6904
 31
0.0
  0
LINE
  8
0
 62
     142
 10
37.116
 20
31.6904
 30
0.0
 11
37.3881
 21
31.4758
 31
0.0
  0
LINE
  8
0
 62
     142
 10
37.3881
 20
31.4758
 30
0.0
 11
37.6496
 21
31.2282
 31
0.0
  0
LINE
  8
0
 62
     142
 10
37.6496
 20
31.2282
 30
0.0
 11
37.8996
 21
30.9453
 31
0.0
  0
LINE
  8
0
 62
     142
 10
37.8996
 20
30.9453
 30
0.0
 11
38.2601
 21
30.446
 31
0.0
  0
LINE
  8
0
 62
     142
 10
38.2601
 20
30.446
 30
0.0
 11
38.564
 21
29.9131
 31
0.0
  0
LINE
  8
0
 62
     142
 10
38.564
 20
29.9131
 30
0.0
 11
38.8138
 21
29.3513
 31
0.0
  0
LINE
  8
0
 62
     142
 10
38.8138
 20
29.3513
 30
0.0
 11
39.0121
 21
28.7656
 31
0.0
  0
LINE
  8
0
 62
     142
 10
39.0121
 20
28.7656
 30
0.0
 11
39.1617
 21
28.1604
 31
0.0
  0
LINE
  8
0
 62
     142
 10
39.1617
 20
28.1604
 30
0.0
 11
39.2651
 21
27.5411
 31
0.0
  0
LINE
  8
0
 62
     142
 10
39.2651
 20
27.5411
 30
0.0
 11
39.3253
 21
26.9121
 31
0.0
  0
LINE
  8
0
 62
     142
 10
39.3253
 20
26.9121
 30
0.0
 11
39.3447
 21
26.2783
 31
0.0
  0
LINE
  8
0
 62
     142
 10
39.3447
 20
26.2783
 30
0.0
 11
39.3326
 21
25.7901
 31
0.0
  0
LINE
  8
0
 62
     142
 10
39.3326
 20
25.7901
 30
0.0
 11
39.2976
 21
25.326
 31
0.0
  0
LINE
  8
0
 62
     142
 10
39.2976
 20
25.326
 30
0.0
 11
39.2414
 21
24.8854
 31
0.0
  0
LINE
  8
0
 62
     142
 10
39.2414
 20
24.8854
 30
0.0
 11
39.1658
 21
24.4682
 31
0.0
  0
LINE
  8
0
 62
     142
 10
39.1658
 20
24.4682
 30
0.0
 11
39.0726
 21
24.0742
 31
0.0
  0
LINE
  8
0
 62
     142
 10
39.0726
 20
24.0742
 30
0.0
 11
38.9636
 21
23.7033
 31
0.0
  0
LINE
  8
0
 62
     142
 10
38.9636
 20
23.7033
 30
0.0
 11
38.8406
 21
23.3553
 31
0.0
  0
LINE
  8
0
 62
     142
 10
38.8406
 20
23.3553
 30
0.0
 11
38.7051
 21
23.0297
 31
0.0
  0
LINE
  8
0
 62
     142
 10
38.7051
 20
23.0297
 30
0.0
 11
38.5593
 21
22.7268
 31
0.0
  0
LINE
  8
0
 62
     142
 10
38.5593
 20
22.7268
 30
0.0
 11
38.4049
 21
22.4461
 31
0.0
  0
LINE
  8
0
 62
     142
 10
38.4049
 20
22.4461
 30
0.0
 11
38.2435
 21
22.1874
 31
0.0
  0
LINE
  8
0
 62
     142
 10
38.2435
 20
22.1874
 30
0.0
 11
38.0769
 21
21.9504
 31
0.0
  0
LINE
  8
0
 62
     142
 10
38.0769
 20
21.9504
 30
0.0
 11
37.9072
 21
21.7353
 31
0.0
  0
LINE
  8
0
 62
     142
 10
37.9072
 20
21.7353
 30
0.0
 11
37.7358
 21
21.5415
 31
0.0
  0
LINE
  8
0
 62
     142
 10
37.7358
 20
21.5415
 30
0.0
 11
37.5646
 21
21.369
 31
0.0
  0
LINE
  8
0
 62
     142
 10
37.5646
 20
21.369
 30
0.0
 11
37.3956
 21
21.2175
 31
0.0
  0
LINE
  8
0
 62
     142
 10
37.3956
 20
21.2175
 30
0.0
 11
37.1758
 21
21.0401
 31
0.0
  0
LINE
  8
0
 62
     142
 10
37.1758
 20
21.0401
 30
0.0
 11
36.9493
 21
20.8849
 31
0.0
  0
LINE
  8
0
 62
     142
 10
36.9493
 20
20.8849
 30
0.0
 11
36.7161
 21
20.7503
 31
0.0
  0
LINE
  8
0
 62
     142
 10
36.7161
 20
20.7503
 30
0.0
 11
36.476
 21
20.6349
 31
0.0
  0
LINE
  8
0
 62
     142
 10
36.476
 20
20.6349
 30
0.0
 11
36.2293
 21
20.5372
 31
0.0
  0
LINE
  8
0
 62
     142
 10
36.2293
 20
20.5372
 30
0.0
 11
35.9757
 21
20.4558
 31
0.0
  0
LINE
  8
0
 62
     142
 10
35.9757
 20
20.4558
 30
0.0
 11
35.7156
 21
20.3892
 31
0.0
  0
LINE
  8
0
 62
     142
 10
35.7156
 20
20.3892
 30
0.0
 11
35.4486
 21
20.3357
 31
0.0
  0
LINE
  8
0
 62
     142
 10
35.4486
 20
20.3357
 30
0.0
 11
35.1751
 21
20.2942
 31
0.0
  0
LINE
  8
0
 62
     142
 10
35.1751
 20
20.2942
 30
0.0
 11
34.895
 21
20.2629
 31
0.0
  0
LINE
  8
0
 62
     142
 10
34.895
 20
20.2629
 30
0.0
 11
34.6082
 21
20.2406
 31
0.0
  0
LINE
  8
0
 62
     142
 10
34.6082
 20
20.2406
 30
0.0
 11
34.3149
 21
20.2256
 31
0.0
  0
LINE
  8
0
 62
     142
 10
34.3149
 20
20.2256
 30
0.0
 11
34.015
 21
20.2164
 31
0.0
  0
LINE
  8
0
 62
     142
 10
34.015
 20
20.2164
 30
0.0
 11
33.7086
 21
20.2118
 31
0.0
  0
LINE
  8
0
 62
     142
 10
33.7086
 20
20.2118
 30
0.0
 11
33.3956
 21
20.21
 31
0.0
  0
LINE
  8
0
 62
     142
 10
33.3956
 20
20.21
 30
0.0
 11
33.0763
 21
20.2097
 31
0.0
  0
LINE
  8
0
 62
     142
 10
33.0763
 20
20.2097
 30
0.0
 11
29.7793
 21
20.2097
 31
0.0
  0
LINE
  8
0
 62
     142
 10
29.7793
 20
20.2097
 30
0.0
 11
29.7793
 21
32.5525
 31
0.0
  0
LINE
  8
0
 62
     142
 10
29.7793
 20
32.5525
 30
0.0
 11
29.7793
 21
32.5525
 31
0.0
  0
LINE
  8
0
 62
     142
 10
31.4022
 20
21.6113
 30
0.0
 11
32.995
 21
21.6113
 31
0.0
  0
LINE
  8
0
 62
     142
 10
32.995
 20
21.6113
 30
0.0
 11
33.4165
 21
21.6154
 31
0.0
  0
LINE
  8
0
 62
     142
 10
33.4165
 20
21.6154
 30
0.0
 11
33.8376
 21
21.6315
 31
0.0
  0
LINE
  8
0
 62
     142
 10
33.8376
 20
21.6315
 30
0.0
 11
34.2531
 21
21.6654
 31
0.0
  0
LINE
  8
0
 62
     142
 10
34.2531
 20
21.6654
 30
0.0
 11
34.6576
 21
21.7224
 31
0.0
  0
LINE
  8
0
 62
     142
 10
34.6576
 20
21.7224
 30
0.0
 11
35.0463
 21
21.8082
 31
0.0
  0
LINE
  8
0
 62
     142
 10
35.0463
 20
21.8082
 30
0.0
 11
35.4138
 21
21.9285
 31
0.0
  0
LINE
  8
0
 62
     142
 10
35.4138
 20
21.9285
 30
0.0
 11
35.7549
 21
22.0888
 31
0.0
  0
LINE
  8
0
 62
     142
 10
35.7549
 20
22.0888
 30
0.0
 11
36.0644
 21
22.2947
 31
0.0
  0
LINE
  8
0
 62
     142
 10
36.0644
 20
22.2947
 30
0.0
 11
36.3281
 21
22.5253
 31
0.0
  0
LINE
  8
0
 62
     142
 10
36.3281
 20
22.5253
 30
0.0
 11
36.5597
 21
22.7724
 31
0.0
  0
LINE
  8
0
 62
     142
 10
36.5597
 20
22.7724
 30
0.0
 11
36.7617
 21
23.0326
 31
0.0
  0
LINE
  8
0
 62
     142
 10
36.7617
 20
23.0326
 30
0.0
 11
36.9358
 21
23.3033
 31
0.0
  0
LINE
  8
0
 62
     142
 10
36.9358
 20
23.3033
 30
0.0
 11
37.0843
 21
23.581
 31
0.0
  0
LINE
  8
0
 62
     142
 10
37.0843
 20
23.581
 30
0.0
 11
37.2092
 21
23.8626
 31
0.0
  0
LINE
  8
0
 62
     142
 10
37.2092
 20
23.8626
 30
0.0
 11
37.3125
 21
24.1453
 31
0.0
  0
LINE
  8
0
 62
     142
 10
37.3125
 20
24.1453
 30
0.0
 11
37.3963
 21
24.4256
 31
0.0
  0
LINE
  8
0
 62
     142
 10
37.3963
 20
24.4256
 30
0.0
 11
37.4624
 21
24.7004
 31
0.0
  0
LINE
  8
0
 62
     142
 10
37.4624
 20
24.7004
 30
0.0
 11
37.5132
 21
24.9667
 31
0.0
  0
LINE
  8
0
 62
     142
 10
37.5132
 20
24.9667
 30
0.0
 11
37.5506
 21
25.2214
 31
0.0
  0
LINE
  8
0
 62
     142
 10
37.5506
 20
25.2214
 30
0.0
 11
37.5764
 21
25.4611
 31
0.0
  0
LINE
  8
0
 62
     142
 10
37.5764
 20
25.4611
 30
0.0
 11
37.5931
 21
25.6831
 31
0.0
  0
LINE
  8
0
 62
     142
 10
37.5931
 20
25.6831
 30
0.0
 11
37.6025
 21
25.8839
 31
0.0
  0
LINE
  8
0
 62
     142
 10
37.6025
 20
25.8839
 30
0.0
 11
37.6065
 21
26.0606
 31
0.0
  0
LINE
  8
0
 62
     142
 10
37.6065
 20
26.0606
 30
0.0
 11
37.6075
 21
26.2097
 31
0.0
  0
LINE
  8
0
 62
     142
 10
37.6075
 20
26.2097
 30
0.0
 11
37.6068
 21
26.315
 31
0.0
  0
LINE
  8
0
 62
     142
 10
37.6068
 20
26.315
 30
0.0
 11
37.6039
 21
26.4551
 31
0.0
  0
LINE
  8
0
 62
     142
 10
37.6039
 20
26.4551
 30
0.0
 11
37.5971
 21
26.6265
 31
0.0
  0
LINE
  8
0
 62
     142
 10
37.5971
 20
26.6265
 30
0.0
 11
37.585
 21
26.8254
 31
0.0
  0
LINE
  8
0
 62
     142
 10
37.585
 20
26.8254
 30
0.0
 11
37.5661
 21
27.0485
 31
0.0
  0
LINE
  8
0
 62
     142
 10
37.5661
 20
27.0485
 30
0.0
 11
37.5388
 21
27.2918
 31
0.0
  0
LINE
  8
0
 62
     142
 10
37.5388
 20
27.2918
 30
0.0
 11
37.5015
 21
27.5521
 31
0.0
  0
LINE
  8
0
 62
     142
 10
37.5015
 20
27.5521
 30
0.0
 11
37.4529
 21
27.8256
 31
0.0
  0
LINE
  8
0
 62
     142
 10
37.4529
 20
27.8256
 30
0.0
 11
37.3914
 21
28.1086
 31
0.0
  0
LINE
  8
0
 62
     142
 10
37.3914
 20
28.1086
 30
0.0
 11
37.3153
 21
28.3978
 31
0.0
  0
LINE
  8
0
 62
     142
 10
37.3153
 20
28.3978
 30
0.0
 11
37.2233
 21
28.6892
 31
0.0
  0
LINE
  8
0
 62
     142
 10
37.2233
 20
28.6892
 30
0.0
 11
37.1139
 21
28.9794
 31
0.0
  0
LINE
  8
0
 62
     142
 10
37.1139
 20
28.9794
 30
0.0
 11
36.9854
 21
29.265
 31
0.0
  0
LINE
  8
0
 62
     142
 10
36.9854
 20
29.265
 30
0.0
 11
36.8364
 21
29.5421
 31
0.0
  0
LINE
  8
0
 62
     142
 10
36.8364
 20
29.5421
 30
0.0
 11
36.6654
 21
29.8071
 31
0.0
  0
LINE
  8
0
 62
     142
 10
36.6654
 20
29.8071
 30
0.0
 11
36.4707
 21
30.0565
 31
0.0
  0
LINE
  8
0
 62
     142
 10
36.4707
 20
30.0565
 30
0.0
 11
36.1808
 21
30.3528
 31
0.0
  0
LINE
  8
0
 62
     142
 10
36.1808
 20
30.3528
 30
0.0
 11
35.8693
 21
30.5921
 31
0.0
  0
LINE
  8
0
 62
     142
 10
35.8693
 20
30.5921
 30
0.0
 11
35.5325
 21
30.7799
 31
0.0
  0
LINE
  8
0
 62
     142
 10
35.5325
 20
30.7799
 30
0.0
 11
35.1672
 21
30.9213
 31
0.0
  0
LINE
  8
0
 62
     142
 10
35.1672
 20
30.9213
 30
0.0
 11
34.7697
 21
31.0219
 31
0.0
  0
LINE
  8
0
 62
     142
 10
34.7697
 20
31.0219
 30
0.0
 11
34.3369
 21
31.0871
 31
0.0
  0
LINE
  8
0
 62
     142
 10
34.3369
 20
31.0871
 30
0.0
 11
33.8653
 21
31.1222
 31
0.0
  0
LINE
  8
0
 62
     142
 10
33.8653
 20
31.1222
 30
0.0
 11
33.3515
 21
31.1328
 31
0.0
  0
LINE
  8
0
 62
     142
 10
33.3515
 20
31.1328
 30
0.0
 11
31.4022
 21
31.1328
 31
0.0
  0
LINE
  8
0
 62
     142
 10
31.4022
 20
31.1328
 30
0.0
 11
31.4022
 21
21.6113
 31
0.0
  0
LINE
  8
0
 62
     142
 10
42.9903
 20
32.5525
 30
0.0
 11
50.3478
 21
32.5525
 31
0.0
  0
LINE
  8
0
 62
     142
 10
50.3478
 20
32.5525
 30
0.0
 11
50.3478
 21
31.0994
 31
0.0
  0
LINE
  8
0
 62
     142
 10
50.3478
 20
31.0994
 30
0.0
 11
44.6143
 21
31.0994
 31
0.0
  0
LINE
  8
0
 62
     142
 10
44.6143
 20
31.0994
 30
0.0
 11
44.6143
 21
27.2528
 31
0.0
  0
LINE
  8
0
 62
     142
 10
44.6143
 20
27.2528
 30
0.0
 11
50.0722
 21
27.2528
 31
0.0
  0
LINE
  8
0
 62
     142
 10
50.0722
 20
27.2528
 30
0.0
 11
50.0722
 21
25.8172
 31
0.0
  0
LINE
  8
0
 62
     142
 10
50.0722
 20
25.8172
 30
0.0
 11
44.6143
 21
25.8172
 31
0.0
  0
LINE
  8
0
 62
     142
 10
44.6143
 20
25.8172
 30
0.0
 11
44.6143
 21
21.7138
 31
0.0
  0
LINE
  8
0
 62
     142
 10
44.6143
 20
21.7138
 30
0.0
 11
50.4775
 21
21.7138
 31
0.0
  0
LINE
  8
0
 62
     142
 10
50.4775
 20
21.7138
 30
0.0
 11
50.4775
 21
20.2088
 31
0.0
  0
LINE
  8
0
 62
     142
 10
50.4775
 20
20.2088
 30
0.0
 11
42.9903
 21
20.2088
 31
0.0
  0
LINE
  8
0
 62
     142
 10
42.9903
 20
20.2088
 30
0.0
 11
42.9903
 21
32.5525
 31
0.0
  0
LINE
  8
0
 62
     142
 10
42.9903
 20
32.5525
 30
0.0
 11
42.9903
 21
32.5525
 31
0.0
  0
LINE
  8
0
 62
     142
 10
19.3838
 20
19.6856
 30
0.0
 11
19.0457
 21
19.6942
 31
0.0
  0
LINE
  8
0
 62
     142
 10
19.0457
 20
19.6942
 30
0.0
 11
18.7121
 21
19.7194
 31
0.0
  0
LINE
  8
0
 62
     142
 10
18.7121
 20
19.7194
 30
0.0
 11
18.3833
 21
19.7614
 31
0.0
  0
LINE
  8
0
 62
     142
 10
18.3833
 20
19.7614
 30
0.0
 11
18.0597
 21
19.8193
 31
0.0
  0
LINE
  8
0
 62
     142
 10
18.0597
 20
19.8193
 30
0.0
 11
17.7418
 21
19.8929
 31
0.0
  0
LINE
  8
0
 62
     142
 10
17.7418
 20
19.8929
 30
0.0
 11
17.4299
 21
19.9817
 31
0.0
  0
LINE
  8
0
 62
     142
 10
17.4299
 20
19.9817
 30
0.0
 11
17.1244
 21
20.0853
 31
0.0
  0
LINE
  8
0
 62
     142
 10
17.1244
 20
20.0853
 30
0.0
 11
16.8258
 21
20.2031
 31
0.0
  0
LINE
  8
0
 62
     142
 10
16.8258
 20
20.2031
 30
0.0
 11
16.5347
 21
20.335
 31
0.0
  0
LINE
  8
0
 62
     142
 10
16.5347
 20
20.335
 30
0.0
 11
16.2511
 21
20.4804
 31
0.0
  0
LINE
  8
0
 62
     142
 10
16.2511
 20
20.4804
 30
0.0
 11
15.9757
 21
20.6389
 31
0.0
  0
LINE
  8
0
 62
     142
 10
15.9757
 20
20.6389
 30
0.0
 11
15.7089
 21
20.8101
 31
0.0
  0
LINE
  8
0
 62
     142
 10
15.7089
 20
20.8101
 30
0.0
 11
15.4508
 21
20.9938
 31
0.0
  0
LINE
  8
0
 62
     142
 10
15.4508
 20
20.9938
 30
0.0
 11
15.2024
 21
21.1892
 31
0.0
  0
LINE
  8
0
 62
     142
 10
15.2024
 20
21.1892
 30
0.0
 11
14.9636
 21
21.396
 31
0.0
  0
LINE
  8
0
 62
     142
 10
14.9636
 20
21.396
 30
0.0
 11
14.7351
 21
21.6139
 31
0.0
  0
LINE
  8
0
 62
     142
 10
14.7351
 20
21.6139
 30
0.0
 11
14.5172
 21
21.8425
 31
0.0
  0
LINE
  8
0
 62
     142
 10
14.5172
 20
21.8425
 30
0.0
 11
14.3103
 21
22.0811
 31
0.0
  0
LINE
  8
0
 62
     142
 10
14.3103
 20
22.0811
 30
0.0
 11
14.1149
 21
22.3297
 31
0.0
  0
LINE
  8
0
 62
     142
 10
14.1149
 20
22.3297
 30
0.0
 11
13.9314
 21
22.5876
 31
0.0
  0
LINE
  8
0
 62
     142
 10
13.9314
 20
22.5876
 30
0.0
 11
13.7601
 21
22.8544
 31
0.0
  0
LINE
  8
0
 62
     142
 10
13.7601
 20
22.8544
 30
0.0
 11
13.6016
 21
23.13
 31
0.0
  0
LINE
  8
0
 62
     142
 10
13.6016
 20
23.13
 30
0.0
 11
13.4562
 21
23.4135
 31
0.0
  0
LINE
  8
0
 62
     142
 10
13.4562
 20
23.4135
 30
0.0
 11
13.3243
 21
23.7047
 31
0.0
  0
LINE
  8
0
 62
     142
 10
13.3243
 20
23.7047
 30
0.0
 11
13.2064
 21
24.0033
 31
0.0
  0
LINE
  8
0
 62
     142
 10
13.2064
 20
24.0033
 30
0.0
 11
13.1029
 21
24.3087
 31
0.0
  0
LINE
  8
0
 62
     142
 10
13.1029
 20
24.3087
 30
0.0
 11
13.0141
 21
24.6206
 31
0.0
  0
LINE
  8
0
 62
     142
 10
13.0141
 20
24.6206
 30
0.0
 11
12.9405
 21
24.9386
 31
0.0
  0
LINE
  8
0
 62
     142
 10
12.9405
 20
24.9386
 30
0.0
 11
12.8827
 21
25.2622
 31
0.0
  0
LINE
  8
0
 62
     142
 10
12.8827
 20
25.2622
 30
0.0
 11
12.8407
 21
25.591
 31
0.0
  0
LINE
  8
0
 62
     142
 10
12.8407
 20
25.591
 30
0.0
 11
12.8153
 21
25.9246
 31
0.0
  0
LINE
  8
0
 62
     142
 10
12.8153
 20
25.9246
 30
0.0
 11
12.8068
 21
26.2625
 31
0.0
  0
LINE
  8
0
 62
     142
 10
12.8068
 20
26.2625
 30
0.0
 11
12.8153
 21
26.6004
 31
0.0
  0
LINE
  8
0
 62
     142
 10
12.8153
 20
26.6004
 30
0.0
 11
12.8407
 21
26.934
 31
0.0
  0
LINE
  8
0
 62
     142
 10
12.8407
 20
26.934
 30
0.0
 11
12.8827
 21
27.2629
 31
0.0
  0
LINE
  8
0
 62
     142
 10
12.8827
 20
27.2629
 30
0.0
 11
12.9405
 21
27.5865
 31
0.0
  0
LINE
  8
0
 62
     142
 10
12.9405
 20
27.5865
 30
0.0
 11
13.0141
 21
27.9044
 31
0.0
  0
LINE
  8
0
 62
     142
 10
13.0141
 20
27.9044
 30
0.0
 11
13.1029
 21
28.2162
 31
0.0
  0
LINE
  8
0
 62
     142
 10
13.1029
 20
28.2162
 30
0.0
 11
13.2064
 21
28.5218
 31
0.0
  0
LINE
  8
0
 62
     142
 10
13.2064
 20
28.5218
 30
0.0
 11
13.3243
 21
28.8204
 31
0.0
  0
LINE
  8
0
 62
     142
 10
13.3243
 20
28.8204
 30
0.0
 11
13.4562
 21
29.1117
 31
0.0
  0
LINE
  8
0
 62
     142
 10
13.4562
 20
29.1117
 30
0.0
 11
13.6016
 21
29.3951
 31
0.0
  0
LINE
  8
0
 62
     142
 10
13.6016
 20
29.3951
 30
0.0
 11
13.7601
 21
29.6707
 31
0.0
  0
LINE
  8
0
 62
     142
 10
13.7601
 20
29.6707
 30
0.0
 11
13.9314
 21
29.9375
 31
0.0
  0
LINE
  8
0
 62
     142
 10
13.9314
 20
29.9375
 30
0.0
 11
14.1149
 21
30.1954
 31
0.0
  0
LINE
  8
0
 62
     142
 10
14.1149
 20
30.1954
 30
0.0
 11
14.3103
 21
30.4439
 31
0.0
  0
LINE
  8
0
 62
     142
 10
14.3103
 20
30.4439
 30
0.0
 11
14.5172
 21
30.6828
 31
0.0
  0
LINE
  8
0
 62
     142
 10
14.5172
 20
30.6828
 30
0.0
 11
14.7351
 21
30.9113
 31
0.0
  0
LINE
  8
0
 62
     142
 10
14.7351
 20
30.9113
 30
0.0
 11
14.9636
 21
31.1292
 31
0.0
  0
LINE
  8
0
 62
     142
 10
14.9636
 20
31.1292
 30
0.0
 11
15.2024
 21
31.3361
 31
0.0
  0
LINE
  8
0
 62
     142
 10
15.2024
 20
31.3361
 30
0.0
 11
15.4508
 21
31.5315
 31
0.0
  0
LINE
  8
0
 62
     142
 10
15.4508
 20
31.5315
 30
0.0
 11
15.7089
 21
31.715
 31
0.0
  0
LINE
  8
0
 62
     142
 10
15.7089
 20
31.715
 30
0.0
 11
15.9757
 21
31.8863
 31
0.0
  0
LINE
  8
0
 62
     142
 10
15.9757
 20
31.8863
 30
0.0
 11
16.2511
 21
32.0449
 31
0.0
  0
LINE
  8
0
 62
     142
 10
16.2511
 20
32.0449
 30
0.0
 11
16.5347
 21
32.1903
 31
0.0
  0
LINE
  8
0
 62
     142
 10
16.5347
 20
32.1903
 30
0.0
 11
16.8258
 21
32.3221
 31
0.0
  0
LINE
  8
0
 62
     142
 10
16.8258
 20
32.3221
 30
0.0
 11
17.1244
 21
32.44
 31
0.0
  0
LINE
  8
0
 62
     142
 10
17.1244
 20
32.44
 30
0.0
 11
17.4299
 21
32.5436
 31
0.0
  0
LINE
  8
0
 62
     142
 10
17.4299
 20
32.5436
 30
0.0
 11
17.7418
 21
32.6324
 31
0.0
  0
LINE
  8
0
 62
     142
 10
17.7418
 20
32.6324
 30
0.0
 11
18.0597
 21
32.7058
 31
0.0
  0
LINE
  8
0
 62
     142
 10
18.0597
 20
32.7058
 30
0.0
 11
18.3833
 21
32.7639
 31
0.0
  0
LINE
  8
0
 62
     142
 10
18.3833
 20
32.7639
 30
0.0
 11
18.7121
 21
32.8057
 31
0.0
  0
LINE
  8
0
 62
     142
 10
18.7121
 20
32.8057
 30
0.0
 11
19.0457
 21
32.8311
 31
0.0
  0
LINE
  8
0
 62
     142
 10
19.0457
 20
32.8311
 30
0.0
 11
19.3838
 21
32.8397
 31
0.0
  0
LINE
  8
0
 62
     142
 10
19.3838
 20
32.8397
 30
0.0
 11
19.7217
 21
32.8311
 31
0.0
  0
LINE
  8
0
 62
     142
 10
19.7217
 20
32.8311
 30
0.0
 11
20.0553
 21
32.8057
 31
0.0
  0
LINE
  8
0
 62
     142
 10
20.0553
 20
32.8057
 30
0.0
 11
20.384
 21
32.7639
 31
0.0
  0
LINE
  8
0
 62
     142
 10
20.384
 20
32.7639
 30
0.0
 11
20.7076
 21
32.7058
 31
0.0
  0
LINE
  8
0
 62
     142
 10
20.7076
 20
32.7058
 30
0.0
 11
21.0256
 21
32.6324
 31
0.0
  0
LINE
  8
0
 62
     142
 10
21.0256
 20
32.6324
 30
0.0
 11
21.3375
 21
32.5436
 31
0.0
  0
LINE
  8
0
 62
     142
 10
21.3375
 20
32.5436
 30
0.0
 11
21.6429
 21
32.44
 31
0.0
  0
LINE
  8
0
 62
     142
 10
21.6429
 20
32.44
 30
0.0
 11
21.9415
 21
32.3221
 31
0.0
  0
LINE
  8
0
 62
     142
 10
21.9415
 20
32.3221
 30
0.0
 11
22.2328
 21
32.1903
 31
0.0
  0
LINE
  8
0
 62
     142
 10
22.2328
 20
32.1903
 30
0.0
 11
22.5164
 21
32.0449
 31
0.0
  0
LINE
  8
0
 62
     142
 10
22.5164
 20
32.0449
 30
0.0
 11
22.7918
 21
31.8863
 31
0.0
  0
LINE
  8
0
 62
     142
 10
22.7918
 20
31.8863
 30
0.0
 11
23.0587
 21
31.715
 31
0.0
  0
LINE
  8
0
 62
     142
 10
23.0587
 20
31.715
 30
0.0
 11
23.3167
 21
31.5315
 31
0.0
  0
LINE
  8
0
 62
     142
 10
23.3167
 20
31.5315
 30
0.0
 11
23.5651
 21
31.3361
 31
0.0
  0
LINE
  8
0
 62
     142
 10
23.5651
 20
31.3361
 30
0.0
 11
23.8039
 21
31.1292
 31
0.0
  0
LINE
  8
0
 62
     142
 10
23.8039
 20
31.1292
 30
0.0
 11
24.0325
 21
30.9113
 31
0.0
  0
LINE
  8
0
 62
     142
 10
24.0325
 20
30.9113
 30
0.0
 11
24.2504
 21
30.6828
 31
0.0
  0
LINE
  8
0
 62
     142
 10
24.2504
 20
30.6828
 30
0.0
 11
24.4572
 21
30.4439
 31
0.0
  0
LINE
  8
0
 62
     142
 10
24.4572
 20
30.4439
 30
0.0
 11
24.6526
 21
30.1954
 31
0.0
  0
LINE
  8
0
 62
     142
 10
24.6526
 20
30.1954
 30
0.0
 11
24.8362
 21
29.9375
 31
0.0
  0
LINE
  8
0
 62
     142
 10
24.8362
 20
29.9375
 30
0.0
 11
25.0075
 21
29.6707
 31
0.0
  0
LINE
  8
0
 62
     142
 10
25.0075
 20
29.6707
 30
0.0
 11
25.166
 21
29.3951
 31
0.0
  0
LINE
  8
0
 62
     142
 10
25.166
 20
29.3951
 30
0.0
 11
25.3114
 21
29.1117
 31
0.0
  0
LINE
  8
0
 62
     142
 10
25.3114
 20
29.1117
 30
0.0
 11
25.4433
 21
28.8204
 31
0.0
  0
LINE
  8
0
 62
     142
 10
25.4433
 20
28.8204
 30
0.0
 11
25.5613
 21
28.5218
 31
0.0
  0
LINE
  8
0
 62
     142
 10
25.5613
 20
28.5218
 30
0.0
 11
25.6647
 21
28.2162
 31
0.0
  0
LINE
  8
0
 62
     142
 10
25.6647
 20
28.2162
 30
0.0
 11
25.7536
 21
27.9044
 31
0.0
  0
LINE
  8
0
 62
     142
 10
25.7536
 20
27.9044
 30
0.0
 11
25.8271
 21
27.5865
 31
0.0
  0
LINE
  8
0
 62
     142
 10
25.8271
 20
27.5865
 30
0.0
 11
25.885
 21
27.2629
 31
0.0
  0
LINE
  8
0
 62
     142
 10
25.885
 20
27.2629
 30
0.0
 11
25.9269
 21
26.934
 31
0.0
  0
LINE
  8
0
 62
     142
 10
25.9269
 20
26.934
 30
0.0
 11
25.9524
 21
26.6004
 31
0.0
  0
LINE
  8
0
 62
     142
 10
25.9524
 20
26.6004
 30
0.0
 11
25.961
 21
26.2625
 31
0.0
  0
LINE
  8
0
 62
     142
 10
25.961
 20
26.2625
 30
0.0
 11
25.9524
 21
25.9246
 31
0.0
  0
LINE
  8
0
 62
     142
 10
25.9524
 20
25.9246
 30
0.0
 11
25.9269
 21
25.591
 31
0.0
  0
LINE
  8
0
 62
     142
 10
25.9269
 20
25.591
 30
0.0
 11
25.885
 21
25.2622
 31
0.0
  0
LINE
  8
0
 62
     142
 10
25.885
 20
25.2622
 30
0.0
 11
25.8271
 21
24.9386
 31
0.0
  0
LINE
  8
0
 62
     142
 10
25.8271
 20
24.9386
 30
0.0
 11
25.7536
 21
24.6206
 31
0.0
  0
LINE
  8
0
 62
     142
 10
25.7536
 20
24.6206
 30
0.0
 11
25.6647
 21
24.3087
 31
0.0
  0
LINE
  8
0
 62
     142
 10
25.6647
 20
24.3087
 30
0.0
 11
25.5613
 21
24.0033
 31
0.0
  0
LINE
  8
0
 62
     142
 10
25.5613
 20
24.0033
 30
0.0
 11
25.4433
 21
23.7047
 31
0.0
  0
LINE
  8
0
 62
     142
 10
25.4433
 20
23.7047
 30
0.0
 11
25.3114
 21
23.4135
 31
0.0
  0
LINE
  8
0
 62
     142
 10
25.3114
 20
23.4135
 30
0.0
 11
25.166
 21
23.13
 31
0.0
  0
LINE
  8
0
 62
     142
 10
25.166
 20
23.13
 30
0.0
 11
25.0075
 21
22.8544
 31
0.0
  0
LINE
  8
0
 62
     142
 10
25.0075
 20
22.8544
 30
0.0
 11
24.8362
 21
22.5876
 31
0.0
  0
LINE
  8
0
 62
     142
 10
24.8362
 20
22.5876
 30
0.0
 11
24.6526
 21
22.3297
 31
0.0
  0
LINE
  8
0
 62
     142
 10
24.6526
 20
22.3297
 30
0.0
 11
24.4572
 21
22.0811
 31
0.0
  0
LINE
  8
0
 62
     142
 10
24.4572
 20
22.0811
 30
0.0
 11
24.2504
 21
21.8425
 31
0.0
  0
LINE
  8
0
 62
     142
 10
24.2504
 20
21.8425
 30
0.0
 11
24.0325
 21
21.6139
 31
0.0
  0
LINE
  8
0
 62
     142
 10
24.0325
 20
21.6139
 30
0.0
 11
23.8039
 21
21.396
 31
0.0
  0
LINE
  8
0
 62
     142
 10
23.8039
 20
21.396
 30
0.0
 11
23.5651
 21
21.1892
 31
0.0
  0
LINE
  8
0
 62
     142
 10
23.5651
 20
21.1892
 30
0.0
 11
23.3167
 21
20.9938
 31
0.0
  0
LINE
  8
0
 62
     142
 10
23.3167
 20
20.9938
 30
0.0
 11
23.0587
 21
20.8101
 31
0.0
  0
LINE
  8
0
 62
     142
 10
23.0587
 20
20.8101
 30
0.0
 11
22.7918
 21
20.6389
 31
0.0
  0
LINE
  8
0
 62
     142
 10
22.7918
 20
20.6389
 30
0.0
 11
22.5164
 21
20.4804
 31
0.0
  0
LINE
  8
0
 62
     142
 10
22.5164
 20
20.4804
 30
0.0
 11
22.2328
 21
20.335
 31
0.0
  0
LINE
  8
0
 62
     142
 10
22.2328
 20
20.335
 30
0.0
 11
21.9415
 21
20.2031
 31
0.0
  0
LINE
  8
0
 62
     142
 10
21.9415
 20
20.2031
 30
0.0
 11
21.6429
 21
20.0853
 31
0.0
  0
LINE
  8
0
 62
     142
 10
21.6429
 20
20.0853
 30
0.0
 11
21.3375
 21
19.9817
 31
0.0
  0
LINE
  8
0
 62
     142
 10
21.3375
 20
19.9817
 30
0.0
 11
21.0256
 21
19.8929
 31
0.0
  0
LINE
  8
0
 62
     142
 10
21.0256
 20
19.8929
 30
0.0
 11
20.7076
 21
19.8193
 31
0.0
  0
LINE
  8
0
 62
     142
 10
20.7076
 20
19.8193
 30
0.0
 11
20.384
 21
19.7614
 31
0.0
  0
LINE
  8
0
 62
     142
 10
20.384
 20
19.7614
 30
0.0
 11
20.0553
 21
19.7194
 31
0.0
  0
LINE
  8
0
 62
     142
 10
20.0553
 20
19.7194
 30
0.0
 11
19.7217
 21
19.6942
 31
0.0
  0
LINE
  8
0
 62
     142
 10
19.7217
 20
19.6942
 30
0.0
 11
19.3838
 21
19.6856
 31
0.0
  0
LINE
  8
0
 62
     142
 10
19.3838
 20
19.6856
 30
0.0
 11
19.3838
 21
19.6856
 31
0.0
  0
LINE
  8
0
 62
     142
 10
19.3838
 20
31.2421
 30
0.0
 11
18.8754
 21
31.2163
 31
0.0
  0
LINE
  8
0
 62
     142
 10
18.8754
 20
31.2163
 30
0.0
 11
18.3817
 21
31.1407
 31
0.0
  0
LINE
  8
0
 62
     142
 10
18.3817
 20
31.1407
 30
0.0
 11
17.9049
 21
31.0178
 31
0.0
  0
LINE
  8
0
 62
     142
 10
17.9049
 20
31.0178
 30
0.0
 11
17.4476
 21
30.85
 31
0.0
  0
LINE
  8
0
 62
     142
 10
17.4476
 20
30.85
 30
0.0
 11
17.0124
 21
30.6401
 31
0.0
  0
LINE
  8
0
 62
     142
 10
17.0124
 20
30.6401
 30
0.0
 11
16.6019
 21
30.3904
 31
0.0
  0
LINE
  8
0
 62
     142
 10
16.6019
 20
30.3904
 30
0.0
 11
16.2185
 21
30.1035
 31
0.0
  0
LINE
  8
0
 62
     142
 10
16.2185
 20
30.1035
 30
0.0
 11
15.8646
 21
29.7818
 31
0.0
  0
LINE
  8
0
 62
     142
 10
15.8646
 20
29.7818
 30
0.0
 11
15.5429
 21
29.4279
 31
0.0
  0
LINE
  8
0
 62
     142
 10
15.5429
 20
29.4279
 30
0.0
 11
15.256
 21
29.0444
 31
0.0
  0
LINE
  8
0
 62
     142
 10
15.256
 20
29.0444
 30
0.0
 11
15.0062
 21
28.6339
 31
0.0
  0
LINE
  8
0
 62
     142
 10
15.0062
 20
28.6339
 30
0.0
 11
14.7962
 21
28.1988
 31
0.0
  0
LINE
  8
0
 62
     142
 10
14.7962
 20
28.1988
 30
0.0
 11
14.6285
 21
27.7415
 31
0.0
  0
LINE
  8
0
 62
     142
 10
14.6285
 20
27.7415
 30
0.0
 11
14.5056
 21
27.2646
 31
0.0
  0
LINE
  8
0
 62
     142
 10
14.5056
 20
27.2646
 30
0.0
 11
14.43
 21
26.7708
 31
0.0
  0
LINE
  8
0
 62
     142
 10
14.43
 20
26.7708
 30
0.0
 11
14.4043
 21
26.2625
 31
0.0
  0
LINE
  8
0
 62
     142
 10
14.4043
 20
26.2625
 30
0.0
 11
14.43
 21
25.7542
 31
0.0
  0
LINE
  8
0
 62
     142
 10
14.43
 20
25.7542
 30
0.0
 11
14.5056
 21
25.2604
 31
0.0
  0
LINE
  8
0
 62
     142
 10
14.5056
 20
25.2604
 30
0.0
 11
14.6285
 21
24.7838
 31
0.0
  0
LINE
  8
0
 62
     142
 10
14.6285
 20
24.7838
 30
0.0
 11
14.7962
 21
24.3267
 31
0.0
  0
LINE
  8
0
 62
     142
 10
14.7962
 20
24.3267
 30
0.0
 11
15.0062
 21
23.8915
 31
0.0
  0
LINE
  8
0
 62
     142
 10
15.0062
 20
23.8915
 30
0.0
 11
15.256
 21
23.481
 31
0.0
  0
LINE
  8
0
 62
     142
 10
15.256
 20
23.481
 30
0.0
 11
15.5429
 21
23.0976
 31
0.0
  0
LINE
  8
0
 62
     142
 10
15.5429
 20
23.0976
 30
0.0
 11
15.8646
 21
22.7439
 31
0.0
  0
LINE
  8
0
 62
     142
 10
15.8646
 20
22.7439
 30
0.0
 11
16.2185
 21
22.4224
 31
0.0
  0
LINE
  8
0
 62
     142
 10
16.2185
 20
22.4224
 30
0.0
 11
16.6019
 21
22.1354
 31
0.0
  0
LINE
  8
0
 62
     142
 10
16.6019
 20
22.1354
 30
0.0
 11
17.0124
 21
21.8858
 31
0.0
  0
LINE
  8
0
 62
     142
 10
17.0124
 20
21.8858
 30
0.0
 11
17.4476
 21
21.676
 31
0.0
  0
LINE
  8
0
 62
     142
 10
17.4476
 20
21.676
 30
0.0
 11
17.9049
 21
21.5082
 31
0.0
  0
LINE
  8
0
 62
     142
 10
17.9049
 20
21.5082
 30
0.0
 11
18.3817
 21
21.3854
 31
0.0
  0
LINE
  8
0
 62
     142
 10
18.3817
 20
21.3854
 30
0.0
 11
18.8754
 21
21.3097
 31
0.0
  0
LINE
  8
0
 62
     142
 10
18.8754
 20
21.3097
 30
0.0
 11
19.3838
 21
21.284
 31
0.0
  0
LINE
  8
0
 62
     142
 10
19.3838
 20
21.284
 30
0.0
 11
19.8921
 21
21.3097
 31
0.0
  0
LINE
  8
0
 62
     142
 10
19.8921
 20
21.3097
 30
0.0
 11
20.3858
 21
21.3854
 31
0.0
  0
LINE
  8
0
 62
     142
 10
20.3858
 20
21.3854
 30
0.0
 11
20.8626
 21
21.5082
 31
0.0
  0
LINE
  8
0
 62
     142
 10
20.8626
 20
21.5082
 30
0.0
 11
21.3197
 21
21.676
 31
0.0
  0
LINE
  8
0
 62
     142
 10
21.3197
 20
21.676
 30
0.0
 11
21.7549
 21
21.8858
 31
0.0
  0
LINE
  8
0
 62
     142
 10
21.7549
 20
21.8858
 30
0.0
 11
22.1654
 21
22.1354
 31
0.0
  0
LINE
  8
0
 62
     142
 10
22.1654
 20
22.1354
 30
0.0
 11
22.5488
 21
22.4224
 31
0.0
  0
LINE
  8
0
 62
     142
 10
22.5488
 20
22.4224
 30
0.0
 11
22.9025
 21
22.7439
 31
0.0
  0
LINE
  8
0
 62
     142
 10
22.9025
 20
22.7439
 30
0.0
 11
23.224
 21
23.0976
 31
0.0
  0
LINE
  8
0
 62
     142
 10
23.224
 20
23.0976
 30
0.0
 11
23.5108
 21
23.481
 31
0.0
  0
LINE
  8
0
 62
     142
 10
23.5108
 20
23.481
 30
0.0
 11
23.7604
 21
23.8915
 31
0.0
  0
LINE
  8
0
 62
     142
 10
23.7604
 20
23.8915
 30
0.0
 11
23.9704
 21
24.3267
 31
0.0
  0
LINE
  8
0
 62
     142
 10
23.9704
 20
24.3267
 30
0.0
 11
24.1381
 21
24.7838
 31
0.0
  0
LINE
  8
0
 62
     142
 10
24.1381
 20
24.7838
 30
0.0
 11
24.261
 21
25.2604
 31
0.0
  0
LINE
  8
0
 62
     142
 10
24.261
 20
25.2604
 30
0.0
 11
24.3365
 21
25.7542
 31
0.0
  0
LINE
  8
0
 62
     142
 10
24.3365
 20
25.7542
 30
0.0
 11
24.3622
 21
26.2625
 31
0.0
  0
LINE
  8
0
 62
     142
 10
24.3622
 20
26.2625
 30
0.0
 11
24.3365
 21
26.7708
 31
0.0
  0
LINE
  8
0
 62
     142
 10
24.3365
 20
26.7708
 30
0.0
 11
24.261
 21
27.2646
 31
0.0
  0
LINE
  8
0
 62
     142
 10
24.261
 20
27.2646
 30
0.0
 11
24.1381
 21
27.7415
 31
0.0
  0
LINE
  8
0
 62
     142
 10
24.1381
 20
27.7415
 30
0.0
 11
23.9704
 21
28.1988
 31
0.0
  0
LINE
  8
0
 62
     142
 10
23.9704
 20
28.1988
 30
0.0
 11
23.7604
 21
28.6339
 31
0.0
  0
LINE
  8
0
 62
     142
 10
23.7604
 20
28.6339
 30
0.0
 11
23.5108
 21
29.0444
 31
0.0
  0
LINE
  8
0
 62
     142
 10
23.5108
 20
29.0444
 30
0.0
 11
23.224
 21
29.4279
 31
0.0
  0
LINE
  8
0
 62
     142
 10
23.224
 20
29.4279
 30
0.0
 11
22.9025
 21
29.7818
 31
0.0
  0
LINE
  8
0
 62
     142
 10
22.9025
 20
29.7818
 30
0.0
 11
22.5488
 21
30.1035
 31
0.0
  0
LINE
  8
0
 62
     142
 10
22.5488
 20
30.1035
 30
0.0
 11
22.1654
 21
30.3904
 31
0.0
  0
LINE
  8
0
 62
     142
 10
22.1654
 20
30.3904
 30
0.0
 11
21.7549
 21
30.6401
 31
0.0
  0
LINE
  8
0
 62
     142
 10
21.7549
 20
30.6401
 30
0.0
 11
21.3197
 21
30.85
 31
0.0
  0
LINE
  8
0
 62
     142
 10
21.3197
 20
30.85
 30
0.0
 11
20.8626
 21
31.0178
 31
0.0
  0
LINE
  8
0
 62
     142
 10
20.8626
 20
31.0178
 30
0.0
 11
20.3858
 21
31.1407
 31
0.0
  0
LINE
  8
0
 62
     142
 10
20.3858
 20
31.1407
 30
0.0
 11
19.8921
 21
31.2163
 31
0.0
  0
LINE
  8
0
 62
     142
 10
19.8921
 20
31.2163
 30
0.0
 11
19.3838
 21
31.2421
 31
0.0
  0
LINE
  8
0
 62
     142
 10
19.3838
 20
31.2421
 30
0.0
 11
19.3838
 21
31.2421
 31
0.0
  0
LINE
  8
0
 62
     142
 10
37.629
 20
39.8828
 30
0.0
 11
37.1568
 21
39.9067
 31
0.0
  0
LINE
  8
0
 62
     142
 10
37.1568
 20
39.9067
 30
0.0
 11
36.6982
 21
39.9769
 31
0.0
  0
LINE
  8
0
 62
     142
 10
36.6982
 20
39.9769
 30
0.0
 11
36.2553
 21
40.0911
 31
0.0
  0
LINE
  8
0
 62
     142
 10
36.2553
 20
40.0911
 30
0.0
 11
35.8306
 21
40.2468
 31
0.0
  0
LINE
  8
0
 62
     142
 10
35.8306
 20
40.2468
 30
0.0
 11
35.4264
 21
40.4418
 31
0.0
  0
LINE
  8
0
 62
     142
 10
35.4264
 20
40.4418
 30
0.0
 11
35.045
 21
40.6738
 31
0.0
  0
LINE
  8
0
 62
     142
 10
35.045
 20
40.6738
 30
0.0
 11
34.6889
 21
40.9403
 31
0.0
  0
LINE
  8
0
 62
     142
 10
34.6889
 20
40.9403
 30
0.0
 11
34.3603
 21
41.239
 31
0.0
  0
LINE
  8
0
 62
     142
 10
34.3603
 20
41.239
 30
0.0
 11
34.0615
 21
41.5676
 31
0.0
  0
LINE
  8
0
 62
     142
 10
34.0615
 20
41.5676
 30
0.0
 11
33.795
 21
41.9238
 31
0.0
  0
LINE
  8
0
 62
     142
 10
33.795
 20
41.9238
 30
0.0
 11
33.5631
 21
42.3051
 31
0.0
  0
LINE
  8
0
 62
     142
 10
33.5631
 20
42.3051
 30
0.0
 11
33.3681
 21
42.7093
 31
0.0
  0
LINE
  8
0
 62
     142
 10
33.3681
 20
42.7093
 30
0.0
 11
33.2124
 21
43.134
 31
0.0
  0
LINE
  8
0
 62
     142
 10
33.2124
 20
43.134
 30
0.0
 11
33.0982
 21
43.5769
 31
0.0
  0
LINE
  8
0
 62
     142
 10
33.0982
 20
43.5769
 30
0.0
 11
33.0279
 21
44.0356
 31
0.0
  0
LINE
  8
0
 62
     142
 10
33.0279
 20
44.0356
 30
0.0
 11
33.004
 21
44.5078
 31
0.0
  0
LINE
  8
0
 62
     142
 10
33.004
 20
44.5078
 30
0.0
 11
33.0279
 21
44.9799
 31
0.0
  0
LINE
  8
0
 62
     142
 10
33.0279
 20
44.9799
 30
0.0
 11
33.0982
 21
45.4385
 31
0.0
  0
LINE
  8
0
 62
     142
 10
33.0982
 20
45.4385
 30
0.0
 11
33.2124
 21
45.8814
 31
0.0
  0
LINE
  8
0
 62
     142
 10
33.2124
 20
45.8814
 30
0.0
 11
33.3681
 21
46.306
 31
0.0
  0
LINE
  8
0
 62
     142
 10
33.3681
 20
46.306
 30
0.0
 11
33.5631
 21
46.71
 31
0.0
  0
LINE
  8
0
 62
     142
 10
33.5631
 20
46.71
 30
0.0
 11
33.795
 21
47.0913
 31
0.0
  0
LINE
  8
0
 62
     142
 10
33.795
 20
47.0913
 30
0.0
 11
34.0615
 21
47.4474
 31
0.0
  0
LINE
  8
0
 62
     142
 10
34.0615
 20
47.4474
 30
0.0
 11
34.3603
 21
47.776
 31
0.0
  0
LINE
  8
0
 62
     142
 10
34.3603
 20
47.776
 30
0.0
 11
34.6889
 21
48.0746
 31
0.0
  0
LINE
  8
0
 62
     142
 10
34.6889
 20
48.0746
 30
0.0
 11
35.045
 21
48.341
 31
0.0
  0
LINE
  8
0
 62
     142
 10
35.045
 20
48.341
 30
0.0
 11
35.4264
 21
48.5729
 31
0.0
  0
LINE
  8
0
 62
     142
 10
35.4264
 20
48.5729
 30
0.0
 11
35.8306
 21
48.7678
 31
0.0
  0
LINE
  8
0
 62
     142
 10
35.8306
 20
48.7678
 30
0.0
 11
36.2553
 21
48.9235
 31
0.0
  0
LINE
  8
0
 62
     142
 10
36.2553
 20
48.9235
 30
0.0
 11
36.6982
 21
49.0376
 31
0.0
  0
LINE
  8
0
 62
     142
 10
36.6982
 20
49.0376
 30
0.0
 11
37.1568
 21
49.1079
 31
0.0
  0
LINE
  8
0
 62
     142
 10
37.1568
 20
49.1079
 30
0.0
 11
37.629
 21
49.1317
 31
0.0
  0
LINE
  8
0
 62
     142
 10
37.629
 20
49.1317
 30
0.0
 11
38.1011
 21
49.1079
 31
0.0
  0
LINE
  8
0
 62
     142
 10
38.1011
 20
49.1079
 30
0.0
 11
38.5597
 21
49.0376
 31
0.0
  0
LINE
  8
0
 62
     142
 10
38.5597
 20
49.0376
 30
0.0
 11
39.0025
 21
48.9235
 31
0.0
  0
LINE
  8
0
 62
     142
 10
39.0025
 20
48.9235
 30
0.0
 11
39.4271
 21
48.7678
 31
0.0
  0
LINE
  8
0
 62
     142
 10
39.4271
 20
48.7678
 30
0.0
 11
39.8313
 21
48.5729
 31
0.0
  0
LINE
  8
0
 62
     142
 10
39.8313
 20
48.5729
 30
0.0
 11
40.2125
 21
48.341
 31
0.0
  0
LINE
  8
0
 62
     142
 10
40.2125
 20
48.341
 30
0.0
 11
40.5686
 21
48.0746
 31
0.0
  0
LINE
  8
0
 62
     142
 10
40.5686
 20
48.0746
 30
0.0
 11
40.8971
 21
47.776
 31
0.0
  0
LINE
  8
0
 62
     142
 10
40.8971
 20
47.776
 30
0.0
 11
41.1958
 21
47.4474
 31
0.0
  0
LINE
  8
0
 62
     142
 10
41.1958
 20
47.4474
 30
0.0
 11
41.4622
 21
47.0913
 31
0.0
  0
LINE
  8
0
 62
     142
 10
41.4622
 20
47.0913
 30
0.0
 11
41.694
 21
46.71
 31
0.0
  0
LINE
  8
0
 62
     142
 10
41.694
 20
46.71
 30
0.0
 11
41.889
 21
46.306
 31
0.0
  0
LINE
  8
0
 62
     142
 10
41.889
 20
46.306
 30
0.0
 11
42.0447
 21
45.8814
 31
0.0
  0
LINE
  8
0
 62
     142
 10
42.0447
 20
45.8814
 30
0.0
 11
42.1589
 21
45.4385
 31
0.0
  0
LINE
  8
0
 62
     142
 10
42.1589
 20
45.4385
 30
0.0
 11
42.229
 21
44.9799
 31
0.0
  0
LINE
  8
0
 62
     142
 10
42.229
 20
44.9799
 30
0.0
 11
42.2529
 21
44.5078
 31
0.0
  0
LINE
  8
0
 62
     142
 10
42.2529
 20
44.5078
 30
0.0
 11
42.229
 21
44.0356
 31
0.0
  0
LINE
  8
0
 62
     142
 10
42.229
 20
44.0356
 30
0.0
 11
42.1589
 21
43.5769
 31
0.0
  0
LINE
  8
0
 62
     142
 10
42.1589
 20
43.5769
 30
0.0
 11
42.0447
 21
43.134
 31
0.0
  0
LINE
  8
0
 62
     142
 10
42.0447
 20
43.134
 30
0.0
 11
41.889
 21
42.7093
 31
0.0
  0
LINE
  8
0
 62
     142
 10
41.889
 20
42.7093
 30
0.0
 11
41.694
 21
42.3051
 31
0.0
  0
LINE
  8
0
 62
     142
 10
41.694
 20
42.3051
 30
0.0
 11
41.4622
 21
41.9238
 31
0.0
  0
LINE
  8
0
 62
     142
 10
41.4622
 20
41.9238
 30
0.0
 11
41.1958
 21
41.5676
 31
0.0
  0
LINE
  8
0
 62
     142
 10
41.1958
 20
41.5676
 30
0.0
 11
40.8971
 21
41.239
 31
0.0
  0
LINE
  8
0
 62
     142
 10
40.8971
 20
41.239
 30
0.0
 11
40.5686
 21
40.9403
 31
0.0
  0
LINE
  8
0
 62
     142
 10
40.5686
 20
40.9403
 30
0.0
 11
40.2125
 21
40.6738
 31
0.0
  0
LINE
  8
0
 62
     142
 10
40.2125
 20
40.6738
 30
0.0
 11
39.8313
 21
40.4418
 31
0.0
  0
LINE
  8
0
 62
     142
 10
39.8313
 20
40.4418
 30
0.0
 11
39.4271
 21
40.2468
 31
0.0
  0
LINE
  8
0
 62
     142
 10
39.4271
 20
40.2468
 30
0.0
 11
39.0025
 21
40.0911
 31
0.0
  0
LINE
  8
0
 62
     142
 10
39.0025
 20
40.0911
 30
0.0
 11
38.5597
 21
39.9769
 31
0.0
  0
LINE
  8
0
 62
     142
 10
38.5597
 20
39.9769
 30
0.0
 11
38.1011
 21
39.9067
 31
0.0
  0
LINE
  8
0
 62
     142
 10
38.1011
 20
39.9067
 30
0.0
 11
37.629
 21
39.8828
 31
0.0
  0
LINE
  8
0
 62
     142
 10
37.629
 20
39.8828
 30
0.0
 11
37.629
 21
39.8828
 31
0.0
  0
LINE
  8
0
 62
     142
 10
37.629
 20
47.8435
 30
0.0
 11
37.2883
 21
47.8263
 31
0.0
  0
LINE
  8
0
 62
     142
 10
37.2883
 20
47.8263
 30
0.0
 11
36.9574
 21
47.7756
 31
0.0
  0
LINE
  8
0
 62
     142
 10
36.9574
 20
47.7756
 30
0.0
 11
36.6379
 21
47.6932
 31
0.0
  0
LINE
  8
0
 62
     142
 10
36.6379
 20
47.6932
 30
0.0
 11
36.3315
 21
47.5808
 31
0.0
  0
LINE
  8
0
 62
     142
 10
36.3315
 20
47.5808
 30
0.0
 11
36.04
 21
47.4403
 31
0.0
  0
LINE
  8
0
 62
     142
 10
36.04
 20
47.4403
 30
0.0
 11
35.7649
 21
47.2729
 31
0.0
  0
LINE
  8
0
 62
     142
 10
35.7649
 20
47.2729
 30
0.0
 11
35.5079
 21
47.0807
 31
0.0
  0
LINE
  8
0
 62
     142
 10
35.5079
 20
47.0807
 30
0.0
 11
35.271
 21
46.8651
 31
0.0
  0
LINE
  8
0
 62
     142
 10
35.271
 20
46.8651
 30
0.0
 11
35.0556
 21
46.6282
 31
0.0
  0
LINE
  8
0
 62
     142
 10
35.0556
 20
46.6282
 30
0.0
 11
34.8633
 21
46.3713
 31
0.0
  0
LINE
  8
0
 62
     142
 10
34.8633
 20
46.3713
 30
0.0
 11
34.6961
 21
46.0962
 31
0.0
  0
LINE
  8
0
 62
     142
 10
34.6961
 20
46.0962
 30
0.0
 11
34.5556
 21
45.8047
 31
0.0
  0
LINE
  8
0
 62
     142
 10
34.5556
 20
45.8047
 30
0.0
 11
34.4432
 21
45.4985
 31
0.0
  0
LINE
  8
0
 62
     142
 10
34.4432
 20
45.4985
 30
0.0
 11
34.3608
 21
45.179
 31
0.0
  0
LINE
  8
0
 62
     142
 10
34.3608
 20
45.179
 30
0.0
 11
34.3103
 21
44.8482
 31
0.0
  0
LINE
  8
0
 62
     142
 10
34.3103
 20
44.8482
 30
0.0
 11
34.2931
 21
44.5078
 31
0.0
  0
LINE
  8
0
 62
     142
 10
34.2931
 20
44.5078
 30
0.0
 11
34.3103
 21
44.1672
 31
0.0
  0
LINE
  8
0
 62
     142
 10
34.3103
 20
44.1672
 30
0.0
 11
34.3608
 21
43.8364
 31
0.0
  0
LINE
  8
0
 62
     142
 10
34.3608
 20
43.8364
 30
0.0
 11
34.4432
 21
43.5171
 31
0.0
  0
LINE
  8
0
 62
     142
 10
34.4432
 20
43.5171
 30
0.0
 11
34.5556
 21
43.2107
 31
0.0
  0
LINE
  8
0
 62
     142
 10
34.5556
 20
43.2107
 30
0.0
 11
34.6961
 21
42.9192
 31
0.0
  0
LINE
  8
0
 62
     142
 10
34.6961
 20
42.9192
 30
0.0
 11
34.8633
 21
42.6442
 31
0.0
  0
LINE
  8
0
 62
     142
 10
34.8633
 20
42.6442
 30
0.0
 11
35.0556
 21
42.3872
 31
0.0
  0
LINE
  8
0
 62
     142
 10
35.0556
 20
42.3872
 30
0.0
 11
35.271
 21
42.1501
 31
0.0
  0
LINE
  8
0
 62
     142
 10
35.271
 20
42.1501
 30
0.0
 11
35.5079
 21
41.9347
 31
0.0
  0
LINE
  8
0
 62
     142
 10
35.5079
 20
41.9347
 30
0.0
 11
35.7649
 21
41.7424
 31
0.0
  0
LINE
  8
0
 62
     142
 10
35.7649
 20
41.7424
 30
0.0
 11
36.04
 21
41.5751
 31
0.0
  0
LINE
  8
0
 62
     142
 10
36.04
 20
41.5751
 30
0.0
 11
36.3315
 21
41.4344
 31
0.0
  0
LINE
  8
0
 62
     142
 10
36.3315
 20
41.4344
 30
0.0
 11
36.6379
 21
41.3221
 31
0.0
  0
LINE
  8
0
 62
     142
 10
36.6379
 20
41.3221
 30
0.0
 11
36.9574
 21
41.2397
 31
0.0
  0
LINE
  8
0
 62
     142
 10
36.9574
 20
41.2397
 30
0.0
 11
37.2883
 21
41.189
 31
0.0
  0
LINE
  8
0
 62
     142
 10
37.2883
 20
41.189
 30
0.0
 11
37.629
 21
41.1718
 31
0.0
  0
LINE
  8
0
 62
     142
 10
37.629
 20
41.1718
 30
0.0
 11
37.9694
 21
41.189
 31
0.0
  0
LINE
  8
0
 62
     142
 10
37.9694
 20
41.189
 30
0.0
 11
38.3001
 21
41.2397
 31
0.0
  0
LINE
  8
0
 62
     142
 10
38.3001
 20
41.2397
 30
0.0
 11
38.6196
 21
41.3221
 31
0.0
  0
LINE
  8
0
 62
     142
 10
38.6196
 20
41.3221
 30
0.0
 11
38.9258
 21
41.4344
 31
0.0
  0
LINE
  8
0
 62
     142
 10
38.9258
 20
41.4344
 30
0.0
 11
39.2172
 21
41.5751
 31
0.0
  0
LINE
  8
0
 62
     142
 10
39.2172
 20
41.5751
 30
0.0
 11
39.4922
 21
41.7424
 31
0.0
  0
LINE
  8
0
 62
     142
 10
39.4922
 20
41.7424
 30
0.0
 11
39.749
 21
41.9347
 31
0.0
  0
LINE
  8
0
 62
     142
 10
39.749
 20
41.9347
 30
0.0
 11
39.9858
 21
42.1501
 31
0.0
  0
LINE
  8
0
 62
     142
 10
39.9858
 20
42.1501
 30
0.0
 11
40.2013
 21
42.3872
 31
0.0
  0
LINE
  8
0
 62
     142
 10
40.2013
 20
42.3872
 30
0.0
 11
40.3935
 21
42.6442
 31
0.0
  0
LINE
  8
0
 62
     142
 10
40.3935
 20
42.6442
 30
0.0
 11
40.5607
 21
42.9192
 31
0.0
  0
LINE
  8
0
 62
     142
 10
40.5607
 20
42.9192
 30
0.0
 11
40.7013
 21
43.2107
 31
0.0
  0
LINE
  8
0
 62
     142
 10
40.7013
 20
43.2107
 30
0.0
 11
40.8135
 21
43.5171
 31
0.0
  0
LINE
  8
0
 62
     142
 10
40.8135
 20
43.5171
 30
0.0
 11
40.8958
 21
43.8364
 31
0.0
  0
LINE
  8
0
 62
     142
 10
40.8958
 20
43.8364
 30
0.0
 11
40.9465
 21
44.1672
 31
0.0
  0
LINE
  8
0
 62
     142
 10
40.9465
 20
44.1672
 30
0.0
 11
40.9637
 21
44.5078
 31
0.0
  0
LINE
  8
0
 62
     142
 10
40.9637
 20
44.5078
 30
0.0
 11
40.9465
 21
44.8482
 31
0.0
  0
LINE
  8
0
 62
     142
 10
40.9465
 20
44.8482
 30
0.0
 11
40.8958
 21
45.179
 31
0.0
  0
LINE
  8
0
 62
     142
 10
40.8958
 20
45.179
 30
0.0
 11
40.8135
 21
45.4985
 31
0.0
  0
LINE
  8
0
 62
     142
 10
40.8135
 20
45.4985
 30
0.0
 11
40.7013
 21
45.8047
 31
0.0
  0
LINE
  8
0
 62
     142
 10
40.7013
 20
45.8047
 30
0.0
 11
40.5607
 21
46.0962
 31
0.0
  0
LINE
  8
0
 62
     142
 10
40.5607
 20
46.0962
 30
0.0
 11
40.3935
 21
46.3713
 31
0.0
  0
LINE
  8
0
 62
     142
 10
40.3935
 20
46.3713
 30
0.0
 11
40.2013
 21
46.6282
 31
0.0
  0
LINE
  8
0
 62
     142
 10
40.2013
 20
46.6282
 30
0.0
 11
39.9858
 21
46.8651
 31
0.0
  0
LINE
  8
0
 62
     142
 10
39.9858
 20
46.8651
 30
0.0
 11
39.749
 21
47.0807
 31
0.0
  0
LINE
  8
0
 62
     142
 10
39.749
 20
47.0807
 30
0.0
 11
39.4922
 21
47.2729
 31
0.0
  0
LINE
  8
0
 62
     142
 10
39.4922
 20
47.2729
 30
0.0
 11
39.2172
 21
47.4403
 31
0.0
  0
LINE
  8
0
 62
     142
 10
39.2172
 20
47.4403
 30
0.0
 11
38.9258
 21
47.5808
 31
0.0
  0
LINE
  8
0
 62
     142
 10
38.9258
 20
47.5808
 30
0.0
 11
38.6196
 21
47.6932
 31
0.0
  0
LINE
  8
0
 62
     142
 10
38.6196
 20
47.6932
 30
0.0
 11
38.3001
 21
47.7756
 31
0.0
  0
LINE
  8
0
 62
     142
 10
38.3001
 20
47.7756
 30
0.0
 11
37.9694
 21
47.8263
 31
0.0
  0
LINE
  8
0
 62
     142
 10
37.9694
 20
47.8263
 30
0.0
 11
37.629
 21
47.8435
 31
0.0
  0
LINE
  8
0
 62
     142
 10
37.629
 20
47.8435
 30
0.0
 11
37.629
 21
47.8435
 31
0.0
  0
LINE
  8
0
 62
     142
 10
54.3182
 20
14.079
 30
0.0
 11
54.0757
 21
14.0913
 31
0.0
  0
LINE
  8
0
 62
     142
 10
54.0757
 20
14.0913
 30
0.0
 11
53.8403
 21
14.1274
 31
0.0
  0
LINE
  8
0
 62
     142
 10
53.8403
 20
14.1274
 30
0.0
 11
53.6128
 21
14.186
 31
0.0
  0
LINE
  8
0
 62
     142
 10
53.6128
 20
14.186
 30
0.0
 11
53.3947
 21
14.266
 31
0.0
  0
LINE
  8
0
 62
     142
 10
53.3947
 20
14.266
 30
0.0
 11
53.1871
 21
14.3661
 31
0.0
  0
LINE
  8
0
 62
     142
 10
53.1871
 20
14.3661
 30
0.0
 11
52.9913
 21
14.4851
 31
0.0
  0
LINE
  8
0
 62
     142
 10
52.9913
 20
14.4851
 30
0.0
 11
52.8083
 21
14.6219
 31
0.0
  0
LINE
  8
0
 62
     142
 10
52.8083
 20
14.6219
 30
0.0
 11
52.6396
 21
14.7754
 31
0.0
  0
LINE
  8
0
 62
     142
 10
52.6396
 20
14.7754
 30
0.0
 11
52.4863
 21
14.9442
 31
0.0
  0
LINE
  8
0
 62
     142
 10
52.4863
 20
14.9442
 30
0.0
 11
52.3494
 21
15.1269
 31
0.0
  0
LINE
  8
0
 62
     142
 10
52.3494
 20
15.1269
 30
0.0
 11
52.2303
 21
15.3228
 31
0.0
  0
LINE
  8
0
 62
     142
 10
52.2303
 20
15.3228
 30
0.0
 11
52.1301
 21
15.5304
 31
0.0
  0
LINE
  8
0
 62
     142
 10
52.1301
 20
15.5304
 30
0.0
 11
52.0501
 21
15.7485
 31
0.0
  0
LINE
  8
0
 62
     142
 10
52.0501
 20
15.7485
 30
0.0
 11
51.9915
 21
15.976
 31
0.0
  0
LINE
  8
0
 62
     142
 10
51.9915
 20
15.976
 30
0.0
 11
51.9556
 21
16.2115
 31
0.0
  0
LINE
  8
0
 62
     142
 10
51.9556
 20
16.2115
 30
0.0
 11
51.9432
 21
16.454
 31
0.0
  0
LINE
  8
0
 62
     142
 10
51.9432
 20
16.454
 30
0.0
 11
51.9556
 21
16.6965
 31
0.0
  0
LINE
  8
0
 62
     142
 10
51.9556
 20
16.6965
 30
0.0
 11
51.9915
 21
16.9321
 31
0.0
  0
LINE
  8
0
 62
     142
 10
51.9915
 20
16.9321
 30
0.0
 11
52.0501
 21
17.1594
 31
0.0
  0
LINE
  8
0
 62
     142
 10
52.0501
 20
17.1594
 30
0.0
 11
52.1301
 21
17.3774
 31
0.0
  0
LINE
  8
0
 62
     142
 10
52.1301
 20
17.3774
 30
0.0
 11
52.2303
 21
17.5849
 31
0.0
  0
LINE
  8
0
 62
     142
 10
52.2303
 20
17.5849
 30
0.0
 11
52.3494
 21
17.7807
 31
0.0
  0
LINE
  8
0
 62
     142
 10
52.3494
 20
17.7807
 30
0.0
 11
52.4863
 21
17.9635
 31
0.0
  0
LINE
  8
0
 62
     142
 10
52.4863
 20
17.9635
 30
0.0
 11
52.6396
 21
18.1321
 31
0.0
  0
LINE
  8
0
 62
     142
 10
52.6396
 20
18.1321
 30
0.0
 11
52.8083
 21
18.2854
 31
0.0
  0
LINE
  8
0
 62
     142
 10
52.8083
 20
18.2854
 30
0.0
 11
52.9913
 21
18.4221
 31
0.0
  0
LINE
  8
0
 62
     142
 10
52.9913
 20
18.4221
 30
0.0
 11
53.1871
 21
18.5411
 31
0.0
  0
LINE
  8
0
 62
     142
 10
53.1871
 20
18.5411
 30
0.0
 11
53.3947
 21
18.6413
 31
0.0
  0
LINE
  8
0
 62
     142
 10
53.3947
 20
18.6413
 30
0.0
 11
53.6128
 21
18.7213
 31
0.0
  0
LINE
  8
0
 62
     142
 10
53.6128
 20
18.7213
 30
0.0
 11
53.8403
 21
18.7797
 31
0.0
  0
LINE
  8
0
 62
     142
 10
53.8403
 20
18.7797
 30
0.0
 11
54.0757
 21
18.8157
 31
0.0
  0
LINE
  8
0
 62
     142
 10
54.0757
 20
18.8157
 30
0.0
 11
54.3182
 21
18.8281
 31
0.0
  0
LINE
  8
0
 62
     142
 10
54.3182
 20
18.8281
 30
0.0
 11
54.5607
 21
18.8157
 31
0.0
  0
LINE
  8
0
 62
     142
 10
54.5607
 20
18.8157
 30
0.0
 11
54.7964
 21
18.7797
 31
0.0
  0
LINE
  8
0
 62
     142
 10
54.7964
 20
18.7797
 30
0.0
 11
55.0237
 21
18.7213
 31
0.0
  0
LINE
  8
0
 62
     142
 10
55.0237
 20
18.7213
 30
0.0
 11
55.2418
 21
18.6413
 31
0.0
  0
LINE
  8
0
 62
     142
 10
55.2418
 20
18.6413
 30
0.0
 11
55.4494
 21
18.5411
 31
0.0
  0
LINE
  8
0
 62
     142
 10
55.4494
 20
18.5411
 30
0.0
 11
55.6453
 21
18.4221
 31
0.0
  0
LINE
  8
0
 62
     142
 10
55.6453
 20
18.4221
 30
0.0
 11
55.8281
 21
18.2854
 31
0.0
  0
LINE
  8
0
 62
     142
 10
55.8281
 20
18.2854
 30
0.0
 11
55.9968
 21
18.1321
 31
0.0
  0
LINE
  8
0
 62
     142
 10
55.9968
 20
18.1321
 30
0.0
 11
56.1503
 21
17.9635
 31
0.0
  0
LINE
  8
0
 62
     142
 10
56.1503
 20
17.9635
 30
0.0
 11
56.2871
 21
17.7807
 31
0.0
  0
LINE
  8
0
 62
     142
 10
56.2871
 20
17.7807
 30
0.0
 11
56.4063
 21
17.5849
 31
0.0
  0
LINE
  8
0
 62
     142
 10
56.4063
 20
17.5849
 30
0.0
 11
56.5062
 21
17.3774
 31
0.0
  0
LINE
  8
0
 62
     142
 10
56.5062
 20
17.3774
 30
0.0
 11
56.5862
 21
17.1594
 31
0.0
  0
LINE
  8
0
 62
     142
 10
56.5862
 20
17.1594
 30
0.0
 11
56.6449
 21
16.9321
 31
0.0
  0
LINE
  8
0
 62
     142
 10
56.6449
 20
16.9321
 30
0.0
 11
56.681
 21
16.6965
 31
0.0
  0
LINE
  8
0
 62
     142
 10
56.681
 20
16.6965
 30
0.0
 11
56.6932
 21
16.454
 31
0.0
  0
LINE
  8
0
 62
     142
 10
56.6932
 20
16.454
 30
0.0
 11
56.681
 21
16.2115
 31
0.0
  0
LINE
  8
0
 62
     142
 10
56.681
 20
16.2115
 30
0.0
 11
56.6449
 21
15.976
 31
0.0
  0
LINE
  8
0
 62
     142
 10
56.6449
 20
15.976
 30
0.0
 11
56.5862
 21
15.7485
 31
0.0
  0
LINE
  8
0
 62
     142
 10
56.5862
 20
15.7485
 30
0.0
 11
56.5062
 21
15.5304
 31
0.0
  0
LINE
  8
0
 62
     142
 10
56.5062
 20
15.5304
 30
0.0
 11
56.4063
 21
15.3228
 31
0.0
  0
LINE
  8
0
 62
     142
 10
56.4063
 20
15.3228
 30
0.0
 11
56.2871
 21
15.1269
 31
0.0
  0
LINE
  8
0
 62
     142
 10
56.2871
 20
15.1269
 30
0.0
 11
56.1503
 21
14.9442
 31
0.0
  0
LINE
  8
0
 62
     142
 10
56.1503
 20
14.9442
 30
0.0
 11
55.9968
 21
14.7754
 31
0.0
  0
LINE
  8
0
 62
     142
 10
55.9968
 20
14.7754
 30
0.0
 11
55.8281
 21
14.6219
 31
0.0
  0
LINE
  8
0
 62
     142
 10
55.8281
 20
14.6219
 30
0.0
 11
55.6453
 21
14.4851
 31
0.0
  0
LINE
  8
0
 62
     142
 10
55.6453
 20
14.4851
 30
0.0
 11
55.4494
 21
14.3661
 31
0.0
  0
LINE
  8
0
 62
     142
 10
55.4494
 20
14.3661
 30
0.0
 11
55.2418
 21
14.266
 31
0.0
  0
LINE
  8
0
 62
     142
 10
55.2418
 20
14.266
 30
0.0
 11
55.0237
 21
14.186
 31
0.0
  0
LINE
  8
0
 62
     142
 10
55.0237
 20
14.186
 30
0.0
 11
54.7964
 21
14.1274
 31
0.0
  0
LINE
  8
0
 62
     142
 10
54.7964
 20
14.1274
 30
0.0
 11
54.5607
 21
14.0913
 31
0.0
  0
LINE
  8
0
 62
     142
 10
54.5607
 20
14.0913
 30
0.0
 11
54.3182
 21
14.079
 31
0.0
  0
LINE
  8
0
 62
     142
 10
54.3182
 20
14.079
 30
0.0
 11
54.3182
 21
14.079
 31
0.0
  0
LINE
  8
0
 62
     142
 10
54.3182
 20
17.7968
 30
0.0
 11
54.1811
 21
17.7899
 31
0.0
  0
LINE
  8
0
 62
     142
 10
54.1811
 20
17.7899
 30
0.0
 11
54.0478
 21
17.7694
 31
0.0
  0
LINE
  8
0
 62
     142
 10
54.0478
 20
17.7694
 30
0.0
 11
53.919
 21
17.7364
 31
0.0
  0
LINE
  8
0
 62
     142
 10
53.919
 20
17.7364
 30
0.0
 11
53.7957
 21
17.6911
 31
0.0
  0
LINE
  8
0
 62
     142
 10
53.7957
 20
17.6911
 30
0.0
 11
53.6782
 21
17.6344
 31
0.0
  0
LINE
  8
0
 62
     142
 10
53.6782
 20
17.6344
 30
0.0
 11
53.5675
 21
17.5671
 31
0.0
  0
LINE
  8
0
 62
     142
 10
53.5675
 20
17.5671
 30
0.0
 11
53.4639
 21
17.4897
 31
0.0
  0
LINE
  8
0
 62
     142
 10
53.4639
 20
17.4897
 30
0.0
 11
53.3685
 21
17.4031
 31
0.0
  0
LINE
  8
0
 62
     142
 10
53.3685
 20
17.4031
 30
0.0
 11
53.2817
 21
17.3075
 31
0.0
  0
LINE
  8
0
 62
     142
 10
53.2817
 20
17.3075
 30
0.0
 11
53.2043
 21
17.2042
 31
0.0
  0
LINE
  8
0
 62
     142
 10
53.2043
 20
17.2042
 30
0.0
 11
53.1369
 21
17.0935
 31
0.0
  0
LINE
  8
0
 62
     142
 10
53.1369
 20
17.0935
 30
0.0
 11
53.0803
 21
16.9761
 31
0.0
  0
LINE
  8
0
 62
     142
 10
53.0803
 20
16.9761
 30
0.0
 11
53.035
 21
16.8528
 31
0.0
  0
LINE
  8
0
 62
     142
 10
53.035
 20
16.8528
 30
0.0
 11
53.0018
 21
16.7242
 31
0.0
  0
LINE
  8
0
 62
     142
 10
53.0018
 20
16.7242
 30
0.0
 11
52.9814
 21
16.5911
 31
0.0
  0
LINE
  8
0
 62
     142
 10
52.9814
 20
16.5911
 30
0.0
 11
52.9744
 21
16.454
 31
0.0
  0
LINE
  8
0
 62
     142
 10
52.9744
 20
16.454
 30
0.0
 11
52.9814
 21
16.3168
 31
0.0
  0
LINE
  8
0
 62
     142
 10
52.9814
 20
16.3168
 30
0.0
 11
53.0018
 21
16.1835
 31
0.0
  0
LINE
  8
0
 62
     142
 10
53.0018
 20
16.1835
 30
0.0
 11
53.035
 21
16.0547
 31
0.0
  0
LINE
  8
0
 62
     142
 10
53.035
 20
16.0547
 30
0.0
 11
53.0803
 21
15.9313
 31
0.0
  0
LINE
  8
0
 62
     142
 10
53.0803
 20
15.9313
 30
0.0
 11
53.1369
 21
15.8139
 31
0.0
  0
LINE
  8
0
 62
     142
 10
53.1369
 20
15.8139
 30
0.0
 11
53.2043
 21
15.7031
 31
0.0
  0
LINE
  8
0
 62
     142
 10
53.2043
 20
15.7031
 30
0.0
 11
53.2817
 21
15.5996
 31
0.0
  0
LINE
  8
0
 62
     142
 10
53.2817
 20
15.5996
 30
0.0
 11
53.3685
 21
15.5042
 31
0.0
  0
LINE
  8
0
 62
     142
 10
53.3685
 20
15.5042
 30
0.0
 11
53.4639
 21
15.4174
 31
0.0
  0
LINE
  8
0
 62
     142
 10
53.4639
 20
15.4174
 30
0.0
 11
53.5675
 21
15.34
 31
0.0
  0
LINE
  8
0
 62
     142
 10
53.5675
 20
15.34
 30
0.0
 11
53.6782
 21
15.2726
 31
0.0
  0
LINE
  8
0
 62
     142
 10
53.6782
 20
15.2726
 30
0.0
 11
53.7957
 21
15.216
 31
0.0
  0
LINE
  8
0
 62
     142
 10
53.7957
 20
15.216
 30
0.0
 11
53.919
 21
15.1707
 31
0.0
  0
LINE
  8
0
 62
     142
 10
53.919
 20
15.1707
 30
0.0
 11
54.0478
 21
15.1376
 31
0.0
  0
LINE
  8
0
 62
     142
 10
54.0478
 20
15.1376
 30
0.0
 11
54.1811
 21
15.1172
 31
0.0
  0
LINE
  8
0
 62
     142
 10
54.1811
 20
15.1172
 30
0.0
 11
54.3182
 21
15.1103
 31
0.0
  0
LINE
  8
0
 62
     142
 10
54.3182
 20
15.1103
 30
0.0
 11
54.4554
 21
15.1172
 31
0.0
  0
LINE
  8
0
 62
     142
 10
54.4554
 20
15.1172
 30
0.0
 11
54.5887
 21
15.1376
 31
0.0
  0
LINE
  8
0
 62
     142
 10
54.5887
 20
15.1376
 30
0.0
 11
54.7175
 21
15.1707
 31
0.0
  0
LINE
  8
0
 62
     142
 10
54.7175
 20
15.1707
 30
0.0
 11
54.841
 21
15.216
 31
0.0
  0
LINE
  8
0
 62
     142
 10
54.841
 20
15.216
 30
0.0
 11
54.9583
 21
15.2726
 31
0.0
  0
LINE
  8
0
 62
     142
 10
54.9583
 20
15.2726
 30
0.0
 11
55.0692
 21
15.34
 31
0.0
  0
LINE
  8
0
 62
     142
 10
55.0692
 20
15.34
 30
0.0
 11
55.1726
 21
15.4174
 31
0.0
  0
LINE
  8
0
 62
     142
 10
55.1726
 20
15.4174
 30
0.0
 11
55.2681
 21
15.5042
 31
0.0
  0
LINE
  8
0
 62
     142
 10
55.2681
 20
15.5042
 30
0.0
 11
55.3549
 21
15.5996
 31
0.0
  0
LINE
  8
0
 62
     142
 10
55.3549
 20
15.5996
 30
0.0
 11
55.4322
 21
15.7031
 31
0.0
  0
LINE
  8
0
 62
     142
 10
55.4322
 20
15.7031
 30
0.0
 11
55.4996
 21
15.8139
 31
0.0
  0
LINE
  8
0
 62
     142
 10
55.4996
 20
15.8139
 30
0.0
 11
55.5563
 21
15.9313
 31
0.0
  0
LINE
  8
0
 62
     142
 10
55.5563
 20
15.9313
 30
0.0
 11
55.6015
 21
16.0547
 31
0.0
  0
LINE
  8
0
 62
     142
 10
55.6015
 20
16.0547
 30
0.0
 11
55.6347
 21
16.1835
 31
0.0
  0
LINE
  8
0
 62
     142
 10
55.6347
 20
16.1835
 30
0.0
 11
55.655
 21
16.3168
 31
0.0
  0
LINE
  8
0
 62
     142
 10
55.655
 20
16.3168
 30
0.0
 11
55.6619
 21
16.454
 31
0.0
  0
LINE
  8
0
 62
     142
 10
55.6619
 20
16.454
 30
0.0
 11
55.655
 21
16.5911
 31
0.0
  0
LINE
  8
0
 62
     142
 10
55.655
 20
16.5911
 30
0.0
 11
55.6347
 21
16.7242
 31
0.0
  0
LINE
  8
0
 62
     142
 10
55.6347
 20
16.7242
 30
0.0
 11
55.6015
 21
16.8528
 31
0.0
  0
LINE
  8
0
 62
     142
 10
55.6015
 20
16.8528
 30
0.0
 11
55.5563
 21
16.9761
 31
0.0
  0
LINE
  8
0
 62
     142
 10
55.5563
 20
16.9761
 30
0.0
 11
55.4996
 21
17.0935
 31
0.0
  0
LINE
  8
0
 62
     142
 10
55.4996
 20
17.0935
 30
0.0
 11
55.4322
 21
17.2042
 31
0.0
  0
LINE
  8
0
 62
     142
 10
55.4322
 20
17.2042
 30
0.0
 11
55.3549
 21
17.3075
 31
0.0
  0
LINE
  8
0
 62
     142
 10
55.3549
 20
17.3075
 30
0.0
 11
55.2681
 21
17.4031
 31
0.0
  0
LINE
  8
0
 62
     142
 10
55.2681
 20
17.4031
 30
0.0
 11
55.1726
 21
17.4897
 31
0.0
  0
LINE
  8
0
 62
     142
 10
55.1726
 20
17.4897
 30
0.0
 11
55.0692
 21
17.5671
 31
0.0
  0
LINE
  8
0
 62
     142
 10
55.0692
 20
17.5671
 30
0.0
 11
54.9583
 21
17.6344
 31
0.0
  0
LINE
  8
0
 62
     142
 10
54.9583
 20
17.6344
 30
0.0
 11
54.841
 21
17.6911
 31
0.0
  0
LINE
  8
0
 62
     142
 10
54.841
 20
17.6911
 30
0.0
 11
54.7175
 21
17.7364
 31
0.0
  0
LINE
  8
0
 62
     142
 10
54.7175
 20
17.7364
 30
0.0
 11
54.5887
 21
17.7694
 31
0.0
  0
LINE
  8
0
 62
     142
 10
54.5887
 20
17.7694
 30
0.0
 11
54.4554
 21
17.7899
 31
0.0
  0
LINE
  8
0
 62
     142
 10
54.4554
 20
17.7899
 30
0.0
 11
54.3182
 21
17.7968
 31
0.0
  0
LINE
  8
0
 62
     142
 10
54.3182
 20
17.7968
 30
0.0
 11
54.3182
 21
17.7968
 31
0.0
  0
LINE
  8
0
 62
     0
 10
51.9442
 20
16.454
 30
0.0
 11
51.9717
 21
16.8164
 31
0.0
  0
LINE
  8
0
 62
     0
 10
51.9717
 20
16.8164
 30
0.0
 11
52.0518
 21
17.1619
 31
0.0
  0
LINE
  8
0
 62
     0
 10
52.0518
 20
17.1619
 30
0.0
 11
29.4863
 21
17.1619
 31
0.0
  0
LINE
  8
0
 62
     0
 10
29.4863
 20
17.1619
 30
0.0
 11
24.5057
 21
22.1435
 31
0.0
  0
LINE
  8
0
 62
     0
 10
24.5057
 20
22.1435
 30
0.0
 11
24.2753
 21
21.8728
 31
0.0
  0
LINE
  8
0
 62
     0
 10
24.2753
 20
21.8728
 30
0.0
 11
24.0311
 21
21.6149
 31
0.0
  0
LINE
  8
0
 62
     0
 10
24.0311
 20
21.6149
 30
0.0
 11
23.7735
 21
21.3706
 31
0.0
  0
LINE
  8
0
 62
     0
 10
23.7735
 20
21.3706
 30
0.0
 11
23.5029
 21
21.1406
 31
0.0
  0
LINE
  8
0
 62
     0
 10
23.5029
 20
21.1406
 30
0.0
 11
28.9006
 21
15.744
 31
0.0
  0
LINE
  8
0
 62
     0
 10
28.9006
 20
15.744
 30
0.0
 11
52.0518
 21
15.744
 31
0.0
  0
LINE
  8
0
 62
     0
 10
52.0518
 20
15.744
 30
0.0
 11
51.9717
 21
16.0906
 31
0.0
  0
LINE
  8
0
 62
     0
 10
51.9717
 20
16.0906
 30
0.0
 11
51.9442
 21
16.454
 31
0.0
  0
LINE
  8
0
 62
     142
 10
26.5753
 20
49.7831
 30
0.0
 11
26.2624
 21
49.7989
 31
0.0
  0
LINE
  8
0
 62
     142
 10
26.2624
 20
49.7989
 30
0.0
 11
25.9585
 21
49.8454
 31
0.0
  0
LINE
  8
0
 62
     142
 10
25.9585
 20
49.8454
 30
0.0
 11
25.665
 21
49.921
 31
0.0
  0
LINE
  8
0
 62
     142
 10
25.665
 20
49.921
 30
0.0
 11
25.3836
 21
50.024
 31
0.0
  0
LINE
  8
0
 62
     142
 10
25.3836
 20
50.024
 30
0.0
 11
25.1158
 21
50.1533
 31
0.0
  0
LINE
  8
0
 62
     142
 10
25.1158
 20
50.1533
 30
0.0
 11
24.8631
 21
50.3068
 31
0.0
  0
LINE
  8
0
 62
     142
 10
24.8631
 20
50.3068
 30
0.0
 11
24.6272
 21
50.4833
 31
0.0
  0
LINE
  8
0
 62
     142
 10
24.6272
 20
50.4833
 30
0.0
 11
24.4094
 21
50.6813
 31
0.0
  0
LINE
  8
0
 62
     142
 10
24.4094
 20
50.6813
 30
0.0
 11
24.2115
 21
50.8989
 31
0.0
  0
LINE
  8
0
 62
     142
 10
24.2115
 20
50.8989
 30
0.0
 11
24.0349
 21
51.1347
 31
0.0
  0
LINE
  8
0
 62
     142
 10
24.0349
 20
51.1347
 30
0.0
 11
23.8812
 21
51.3874
 31
0.0
  0
LINE
  8
0
 62
     142
 10
23.8812
 20
51.3874
 30
0.0
 11
23.7519
 21
51.6551
 31
0.0
  0
LINE
  8
0
 62
     142
 10
23.7519
 20
51.6551
 30
0.0
 11
23.6487
 21
51.9365
 31
0.0
  0
LINE
  8
0
 62
     142
 10
23.6487
 20
51.9365
 30
0.0
 11
23.5731
 21
52.2299
 31
0.0
  0
LINE
  8
0
 62
     142
 10
23.5731
 20
52.2299
 30
0.0
 11
23.5265
 21
52.5337
 31
0.0
  0
LINE
  8
0
 62
     142
 10
23.5265
 20
52.5337
 30
0.0
 11
23.5107
 21
52.8465
 31
0.0
  0
LINE
  8
0
 62
     142
 10
23.5107
 20
52.8465
 30
0.0
 11
23.5265
 21
53.1594
 31
0.0
  0
LINE
  8
0
 62
     142
 10
23.5265
 20
53.1594
 30
0.0
 11
23.5731
 21
53.4633
 31
0.0
  0
LINE
  8
0
 62
     142
 10
23.5731
 20
53.4633
 30
0.0
 11
23.6487
 21
53.7567
 31
0.0
  0
LINE
  8
0
 62
     142
 10
23.6487
 20
53.7567
 30
0.0
 11
23.7519
 21
54.0379
 31
0.0
  0
LINE
  8
0
 62
     142
 10
23.7519
 20
54.0379
 30
0.0
 11
23.8812
 21
54.3057
 31
0.0
  0
LINE
  8
0
 62
     142
 10
23.8812
 20
54.3057
 30
0.0
 11
24.0349
 21
54.5583
 31
0.0
  0
LINE
  8
0
 62
     142
 10
24.0349
 20
54.5583
 30
0.0
 11
24.2115
 21
54.7942
 31
0.0
  0
LINE
  8
0
 62
     142
 10
24.2115
 20
54.7942
 30
0.0
 11
24.4094
 21
55.0118
 31
0.0
  0
LINE
  8
0
 62
     142
 10
24.4094
 20
55.0118
 30
0.0
 11
24.6272
 21
55.2097
 31
0.0
  0
LINE
  8
0
 62
     142
 10
24.6272
 20
55.2097
 30
0.0
 11
24.8631
 21
55.3861
 31
0.0
  0
LINE
  8
0
 62
     142
 10
24.8631
 20
55.3861
 30
0.0
 11
25.1158
 21
55.5397
 31
0.0
  0
LINE
  8
0
 62
     142
 10
25.1158
 20
55.5397
 30
0.0
 11
25.3836
 21
55.6689
 31
0.0
  0
LINE
  8
0
 62
     142
 10
25.3836
 20
55.6689
 30
0.0
 11
25.665
 21
55.7721
 31
0.0
  0
LINE
  8
0
 62
     142
 10
25.665
 20
55.7721
 30
0.0
 11
25.9585
 21
55.8476
 31
0.0
  0
LINE
  8
0
 62
     142
 10
25.9585
 20
55.8476
 30
0.0
 11
26.2624
 21
55.8942
 31
0.0
  0
LINE
  8
0
 62
     142
 10
26.2624
 20
55.8942
 30
0.0
 11
26.5753
 21
55.91
 31
0.0
  0
LINE
  8
0
 62
     142
 10
26.5753
 20
55.91
 30
0.0
 11
26.8881
 21
55.8942
 31
0.0
  0
LINE
  8
0
 62
     142
 10
26.8881
 20
55.8942
 30
0.0
 11
27.1919
 21
55.8476
 31
0.0
  0
LINE
  8
0
 62
     142
 10
27.1919
 20
55.8476
 30
0.0
 11
27.4853
 21
55.7721
 31
0.0
  0
LINE
  8
0
 62
     142
 10
27.4853
 20
55.7721
 30
0.0
 11
27.7667
 21
55.6689
 31
0.0
  0
LINE
  8
0
 62
     142
 10
27.7667
 20
55.6689
 30
0.0
 11
28.0344
 21
55.5397
 31
0.0
  0
LINE
  8
0
 62
     142
 10
28.0344
 20
55.5397
 30
0.0
 11
28.2869
 21
55.3861
 31
0.0
  0
LINE
  8
0
 62
     142
 10
28.2869
 20
55.3861
 30
0.0
 11
28.5229
 21
55.2097
 31
0.0
  0
LINE
  8
0
 62
     142
 10
28.5229
 20
55.2097
 30
0.0
 11
28.7406
 21
55.0118
 31
0.0
  0
LINE
  8
0
 62
     142
 10
28.7406
 20
55.0118
 30
0.0
 11
28.9383
 21
54.7942
 31
0.0
  0
LINE
  8
0
 62
     142
 10
28.9383
 20
54.7942
 30
0.0
 11
29.1149
 21
54.5583
 31
0.0
  0
LINE
  8
0
 62
     142
 10
29.1149
 20
54.5583
 30
0.0
 11
29.2685
 21
54.3057
 31
0.0
  0
LINE
  8
0
 62
     142
 10
29.2685
 20
54.3057
 30
0.0
 11
29.3976
 21
54.0379
 31
0.0
  0
LINE
  8
0
 62
     142
 10
29.3976
 20
54.0379
 30
0.0
 11
29.5007
 21
53.7567
 31
0.0
  0
LINE
  8
0
 62
     142
 10
29.5007
 20
53.7567
 30
0.0
 11
29.5764
 21
53.4633
 31
0.0
  0
LINE
  8
0
 62
     142
 10
29.5764
 20
53.4633
 30
0.0
 11
29.6228
 21
53.1594
 31
0.0
  0
LINE
  8
0
 62
     142
 10
29.6228
 20
53.1594
 30
0.0
 11
29.6388
 21
52.8465
 31
0.0
  0
LINE
  8
0
 62
     142
 10
29.6388
 20
52.8465
 30
0.0
 11
29.6228
 21
52.5337
 31
0.0
  0
LINE
  8
0
 62
     142
 10
29.6228
 20
52.5337
 30
0.0
 11
29.5764
 21
52.2299
 31
0.0
  0
LINE
  8
0
 62
     142
 10
29.5764
 20
52.2299
 30
0.0
 11
29.5007
 21
51.9365
 31
0.0
  0
LINE
  8
0
 62
     142
 10
29.5007
 20
51.9365
 30
0.0
 11
29.3976
 21
51.6551
 31
0.0
  0
LINE
  8
0
 62
     142
 10
29.3976
 20
51.6551
 30
0.0
 11
29.2685
 21
51.3874
 31
0.0
  0
LINE
  8
0
 62
     142
 10
29.2685
 20
51.3874
 30
0.0
 11
29.1149
 21
51.1347
 31
0.0
  0
LINE
  8
0
 62
     142
 10
29.1149
 20
51.1347
 30
0.0
 11
28.9383
 21
50.8989
 31
0.0
  0
LINE
  8
0
 62
     142
 10
28.9383
 20
50.8989
 30
0.0
 11
28.7406
 21
50.6813
 31
0.0
  0
LINE
  8
0
 62
     142
 10
28.7406
 20
50.6813
 30
0.0
 11
28.5229
 21
50.4833
 31
0.0
  0
LINE
  8
0
 62
     142
 10
28.5229
 20
50.4833
 30
0.0
 11
28.2869
 21
50.3068
 31
0.0
  0
LINE
  8
0
 62
     142
 10
28.2869
 20
50.3068
 30
0.0
 11
28.0344
 21
50.1533
 31
0.0
  0
LINE
  8
0
 62
     142
 10
28.0344
 20
50.1533
 30
0.0
 11
27.7667
 21
50.024
 31
0.0
  0
LINE
  8
0
 62
     142
 10
27.7667
 20
50.024
 30
0.0
 11
27.4853
 21
49.921
 31
0.0
  0
LINE
  8
0
 62
     142
 10
27.4853
 20
49.921
 30
0.0
 11
27.1919
 21
49.8454
 31
0.0
  0
LINE
  8
0
 62
     142
 10
27.1919
 20
49.8454
 30
0.0
 11
26.8881
 21
49.7989
 31
0.0
  0
LINE
  8
0
 62
     142
 10
26.8881
 20
49.7989
 30
0.0
 11
26.5753
 21
49.7831
 31
0.0
  0
LINE
  8
0
 62
     142
 10
26.5753
 20
49.7831
 30
0.0
 11
26.5753
 21
49.7831
 31
0.0
  0
LINE
  8
0
 62
     142
 10
26.5753
 20
54.7497
 30
0.0
 11
26.3808
 21
54.7399
 31
0.0
  0
LINE
  8
0
 62
     142
 10
26.3808
 20
54.7399
 30
0.0
 11
26.1919
 21
54.7111
 31
0.0
  0
LINE
  8
0
 62
     142
 10
26.1919
 20
54.7111
 30
0.0
 11
26.0097
 21
54.664
 31
0.0
  0
LINE
  8
0
 62
     142
 10
26.0097
 20
54.664
 30
0.0
 11
25.8349
 21
54.6
 31
0.0
  0
LINE
  8
0
 62
     142
 10
25.8349
 20
54.6
 30
0.0
 11
25.6683
 21
54.5197
 31
0.0
  0
LINE
  8
0
 62
     142
 10
25.6683
 20
54.5197
 30
0.0
 11
25.5114
 21
54.4243
 31
0.0
  0
LINE
  8
0
 62
     142
 10
25.5114
 20
54.4243
 30
0.0
 11
25.3647
 21
54.3147
 31
0.0
  0
LINE
  8
0
 62
     142
 10
25.3647
 20
54.3147
 30
0.0
 11
25.2294
 21
54.1918
 31
0.0
  0
LINE
  8
0
 62
     142
 10
25.2294
 20
54.1918
 30
0.0
 11
25.1064
 21
54.0565
 31
0.0
  0
LINE
  8
0
 62
     142
 10
25.1064
 20
54.0565
 30
0.0
 11
24.9967
 21
53.91
 31
0.0
  0
LINE
  8
0
 62
     142
 10
24.9967
 20
53.91
 30
0.0
 11
24.9013
 21
53.7532
 31
0.0
  0
LINE
  8
0
 62
     142
 10
24.9013
 20
53.7532
 30
0.0
 11
24.821
 21
53.5868
 31
0.0
  0
LINE
  8
0
 62
     142
 10
24.821
 20
53.5868
 30
0.0
 11
24.7568
 21
53.4119
 31
0.0
  0
LINE
  8
0
 62
     142
 10
24.7568
 20
53.4119
 30
0.0
 11
24.7097
 21
53.2297
 31
0.0
  0
LINE
  8
0
 62
     142
 10
24.7097
 20
53.2297
 30
0.0
 11
24.6808
 21
53.041
 31
0.0
  0
LINE
  8
0
 62
     142
 10
24.6808
 20
53.041
 30
0.0
 11
24.671
 21
52.8465
 31
0.0
  0
LINE
  8
0
 62
     142
 10
24.671
 20
52.8465
 30
0.0
 11
24.6808
 21
52.6524
 31
0.0
  0
LINE
  8
0
 62
     142
 10
24.6808
 20
52.6524
 30
0.0
 11
24.7097
 21
52.4636
 31
0.0
  0
LINE
  8
0
 62
     142
 10
24.7097
 20
52.4636
 30
0.0
 11
24.7568
 21
52.2815
 31
0.0
  0
LINE
  8
0
 62
     142
 10
24.7568
 20
52.2815
 30
0.0
 11
24.821
 21
52.1067
 31
0.0
  0
LINE
  8
0
 62
     142
 10
24.821
 20
52.1067
 30
0.0
 11
24.9013
 21
51.9404
 31
0.0
  0
LINE
  8
0
 62
     142
 10
24.9013
 20
51.9404
 30
0.0
 11
24.9967
 21
51.7835
 31
0.0
  0
LINE
  8
0
 62
     142
 10
24.9967
 20
51.7835
 30
0.0
 11
25.1064
 21
51.6369
 31
0.0
  0
LINE
  8
0
 62
     142
 10
25.1064
 20
51.6369
 30
0.0
 11
25.2294
 21
51.5017
 31
0.0
  0
LINE
  8
0
 62
     142
 10
25.2294
 20
51.5017
 30
0.0
 11
25.3647
 21
51.3786
 31
0.0
  0
LINE
  8
0
 62
     142
 10
25.3647
 20
51.3786
 30
0.0
 11
25.5114
 21
51.2689
 31
0.0
  0
LINE
  8
0
 62
     142
 10
25.5114
 20
51.2689
 30
0.0
 11
25.6683
 21
51.1735
 31
0.0
  0
LINE
  8
0
 62
     142
 10
25.6683
 20
51.1735
 30
0.0
 11
25.8349
 21
51.0932
 31
0.0
  0
LINE
  8
0
 62
     142
 10
25.8349
 20
51.0932
 30
0.0
 11
26.0097
 21
51.029
 31
0.0
  0
LINE
  8
0
 62
     142
 10
26.0097
 20
51.029
 30
0.0
 11
26.1919
 21
50.9821
 31
0.0
  0
LINE
  8
0
 62
     142
 10
26.1919
 20
50.9821
 30
0.0
 11
26.3808
 21
50.9531
 31
0.0
  0
LINE
  8
0
 62
     142
 10
26.3808
 20
50.9531
 30
0.0
 11
26.5753
 21
50.9432
 31
0.0
  0
LINE
  8
0
 62
     142
 10
26.5753
 20
50.9432
 30
0.0
 11
26.7694
 21
50.9531
 31
0.0
  0
LINE
  8
0
 62
     142
 10
26.7694
 20
50.9531
 30
0.0
 11
26.9581
 21
50.9821
 31
0.0
  0
LINE
  8
0
 62
     142
 10
26.9581
 20
50.9821
 30
0.0
 11
27.1403
 21
51.029
 31
0.0
  0
LINE
  8
0
 62
     142
 10
27.1403
 20
51.029
 30
0.0
 11
27.315
 21
51.0932
 31
0.0
  0
LINE
  8
0
 62
     142
 10
27.315
 20
51.0932
 30
0.0
 11
27.4814
 21
51.1735
 31
0.0
  0
LINE
  8
0
 62
     142
 10
27.4814
 20
51.1735
 30
0.0
 11
27.6383
 21
51.2689
 31
0.0
  0
LINE
  8
0
 62
     142
 10
27.6383
 20
51.2689
 30
0.0
 11
27.7849
 21
51.3786
 31
0.0
  0
LINE
  8
0
 62
     142
 10
27.7849
 20
51.3786
 30
0.0
 11
27.9201
 21
51.5017
 31
0.0
  0
LINE
  8
0
 62
     142
 10
27.9201
 20
51.5017
 30
0.0
 11
28.0432
 21
51.6369
 31
0.0
  0
LINE
  8
0
 62
     142
 10
28.0432
 20
51.6369
 30
0.0
 11
28.1528
 21
51.7835
 31
0.0
  0
LINE
  8
0
 62
     142
 10
28.1528
 20
51.7835
 30
0.0
 11
28.2483
 21
51.9404
 31
0.0
  0
LINE
  8
0
 62
     142
 10
28.2483
 20
51.9404
 30
0.0
 11
28.3286
 21
52.1067
 31
0.0
  0
LINE
  8
0
 62
     142
 10
28.3286
 20
52.1067
 30
0.0
 11
28.3928
 21
52.2815
 31
0.0
  0
LINE
  8
0
 62
     142
 10
28.3928
 20
52.2815
 30
0.0
 11
28.4397
 21
52.4636
 31
0.0
  0
LINE
  8
0
 62
     142
 10
28.4397
 20
52.4636
 30
0.0
 11
28.4686
 21
52.6524
 31
0.0
  0
LINE
  8
0
 62
     142
 10
28.4686
 20
52.6524
 30
0.0
 11
28.4785
 21
52.8465
 31
0.0
  0
LINE
  8
0
 62
     142
 10
28.4785
 20
52.8465
 30
0.0
 11
28.4686
 21
53.041
 31
0.0
  0
LINE
  8
0
 62
     142
 10
28.4686
 20
53.041
 30
0.0
 11
28.4397
 21
53.2297
 31
0.0
  0
LINE
  8
0
 62
     142
 10
28.4397
 20
53.2297
 30
0.0
 11
28.3928
 21
53.4119
 31
0.0
  0
LINE
  8
0
 62
     142
 10
28.3928
 20
53.4119
 30
0.0
 11
28.3286
 21
53.5868
 31
0.0
  0
LINE
  8
0
 62
     142
 10
28.3286
 20
53.5868
 30
0.0
 11
28.2483
 21
53.7532
 31
0.0
  0
LINE
  8
0
 62
     142
 10
28.2483
 20
53.7532
 30
0.0
 11
28.1528
 21
53.91
 31
0.0
  0
LINE
  8
0
 62
     142
 10
28.1528
 20
53.91
 30
0.0
 11
28.0432
 21
54.0565
 31
0.0
  0
LINE
  8
0
 62
     142
 10
28.0432
 20
54.0565
 30
0.0
 11
27.9201
 21
54.1918
 31
0.0
  0
LINE
  8
0
 62
     142
 10
27.9201
 20
54.1918
 30
0.0
 11
27.7849
 21
54.3147
 31
0.0
  0
LINE
  8
0
 62
     142
 10
27.7849
 20
54.3147
 30
0.0
 11
27.6383
 21
54.4243
 31
0.0
  0
LINE
  8
0
 62
     142
 10
27.6383
 20
54.4243
 30
0.0
 11
27.4814
 21
54.5197
 31
0.0
  0
LINE
  8
0
 62
     142
 10
27.4814
 20
54.5197
 30
0.0
 11
27.315
 21
54.6
 31
0.0
  0
LINE
  8
0
 62
     142
 10
27.315
 20
54.6
 30
0.0
 11
27.1403
 21
54.664
 31
0.0
  0
LINE
  8
0
 62
     142
 10
27.1403
 20
54.664
 30
0.0
 11
26.9581
 21
54.7111
 31
0.0
  0
LINE
  8
0
 62
     142
 10
26.9581
 20
54.7111
 30
0.0
 11
26.7694
 21
54.7399
 31
0.0
  0
LINE
  8
0
 62
     142
 10
26.7694
 20
54.7399
 30
0.0
 11
26.5753
 21
54.7497
 31
0.0
  0
LINE
  8
0
 62
     142
 10
26.5753
 20
54.7497
 30
0.0
 11
26.5753
 21
54.7497
 31
0.0
  0
LINE
  8
0
 62
     142
 10
19.3838
 20
-0.000271267
 30
0.0
 11
18.9971
 21
0.0193685
 31
0.0
  0
LINE
  8
0
 62
     142
 10
18.9971
 20
0.0193685
 30
0.0
 11
18.6217
 21
0.0768229
 31
0.0
  0
LINE
  8
0
 62
     142
 10
18.6217
 20
0.0768229
 30
0.0
 11
18.259
 21
0.170356
 31
0.0
  0
LINE
  8
0
 62
     142
 10
18.259
 20
0.170356
 30
0.0
 11
17.9114
 21
0.297851
 31
0.0
  0
LINE
  8
0
 62
     142
 10
17.9114
 20
0.297851
 30
0.0
 11
17.5806
 21
0.457574
 31
0.0
  0
LINE
  8
0
 62
     142
 10
17.5806
 20
0.457574
 30
0.0
 11
17.2683
 21
0.647461
 31
0.0
  0
LINE
  8
0
 62
     142
 10
17.2683
 20
0.647461
 30
0.0
 11
16.9768
 21
0.865668
 31
0.0
  0
LINE
  8
0
 62
     142
 10
16.9768
 20
0.865668
 30
0.0
 11
16.7078
 21
1.11024
 31
0.0
  0
LINE
  8
0
 62
     142
 10
16.7078
 20
1.11024
 30
0.0
 11
16.4633
 21
1.37934
 31
0.0
  0
LINE
  8
0
 62
     142
 10
16.4633
 20
1.37934
 30
0.0
 11
16.2451
 21
1.6709
 31
0.0
  0
LINE
  8
0
 62
     142
 10
16.2451
 20
1.6709
 30
0.0
 11
16.0553
 21
1.98307
 31
0.0
  0
LINE
  8
0
 62
     142
 10
16.0553
 20
1.98307
 30
0.0
 11
15.8957
 21
2.31396
 31
0.0
  0
LINE
  8
0
 62
     142
 10
15.8957
 20
2.31396
 30
0.0
 11
15.7682
 21
2.66162
 31
0.0
  0
LINE
  8
0
 62
     142
 10
15.7682
 20
2.66162
 30
0.0
 11
15.6749
 21
3.02414
 31
0.0
  0
LINE
  8
0
 62
     142
 10
15.6749
 20
3.02414
 30
0.0
 11
15.6174
 21
3.39958
 31
0.0
  0
LINE
  8
0
 62
     142
 10
15.6174
 20
3.39958
 30
0.0
 11
15.5978
 21
3.78603
 31
0.0
  0
LINE
  8
0
 62
     142
 10
15.5978
 20
3.78603
 30
0.0
 11
15.6174
 21
4.17264
 31
0.0
  0
LINE
  8
0
 62
     142
 10
15.6174
 20
4.17264
 30
0.0
 11
15.6749
 21
4.54812
 31
0.0
  0
LINE
  8
0
 62
     142
 10
15.6749
 20
4.54812
 30
0.0
 11
15.7682
 21
4.91069
 31
0.0
  0
LINE
  8
0
 62
     142
 10
15.7682
 20
4.91069
 30
0.0
 11
15.8957
 21
5.25836
 31
0.0
  0
LINE
  8
0
 62
     142
 10
15.8957
 20
5.25836
 30
0.0
 11
16.0553
 21
5.58925
 31
0.0
  0
LINE
  8
0
 62
     142
 10
16.0553
 20
5.58925
 30
0.0
 11
16.2451
 21
5.90142
 31
0.0
  0
LINE
  8
0
 62
     142
 10
16.2451
 20
5.90142
 30
0.0
 11
16.4633
 21
6.19293
 31
0.0
  0
LINE
  8
0
 62
     142
 10
16.4633
 20
6.19293
 30
0.0
 11
16.7078
 21
6.46192
 31
0.0
  0
LINE
  8
0
 62
     142
 10
16.7078
 20
6.46192
 30
0.0
 11
16.9768
 21
6.70643
 31
0.0
  0
LINE
  8
0
 62
     142
 10
16.9768
 20
6.70643
 30
0.0
 11
17.2683
 21
6.92458
 31
0.0
  0
LINE
  8
0
 62
     142
 10
17.2683
 20
6.92458
 30
0.0
 11
17.5806
 21
7.11442
 31
0.0
  0
LINE
  8
0
 62
     142
 10
17.5806
 20
7.11442
 30
0.0
 11
17.9114
 21
7.27403
 31
0.0
  0
LINE
  8
0
 62
     142
 10
17.9114
 20
7.27403
 30
0.0
 11
18.259
 21
7.40153
 31
0.0
  0
LINE
  8
0
 62
     142
 10
18.259
 20
7.40153
 30
0.0
 11
18.6217
 21
7.49496
 31
0.0
  0
LINE
  8
0
 62
     142
 10
18.6217
 20
7.49496
 30
0.0
 11
18.9971
 21
7.55246
 31
0.0
  0
LINE
  8
0
 62
     142
 10
18.9971
 20
7.55246
 30
0.0
 11
19.3838
 21
7.572
 31
0.0
  0
LINE
  8
0
 62
     142
 10
19.3838
 20
7.572
 30
0.0
 11
19.7703
 21
7.55246
 31
0.0
  0
LINE
  8
0
 62
     142
 10
19.7703
 20
7.55246
 30
0.0
 11
20.1458
 21
7.49496
 31
0.0
  0
LINE
  8
0
 62
     142
 10
20.1458
 20
7.49496
 30
0.0
 11
20.5085
 21
7.40153
 31
0.0
  0
LINE
  8
0
 62
     142
 10
20.5085
 20
7.40153
 30
0.0
 11
20.8561
 21
7.27403
 31
0.0
  0
LINE
  8
0
 62
     142
 10
20.8561
 20
7.27403
 30
0.0
 11
21.1871
 21
7.11442
 31
0.0
  0
LINE
  8
0
 62
     142
 10
21.1871
 20
7.11442
 30
0.0
 11
21.4993
 21
6.92458
 31
0.0
  0
LINE
  8
0
 62
     142
 10
21.4993
 20
6.92458
 30
0.0
 11
21.7908
 21
6.70643
 31
0.0
  0
LINE
  8
0
 62
     142
 10
21.7908
 20
6.70643
 30
0.0
 11
22.0599
 21
6.46192
 31
0.0
  0
LINE
  8
0
 62
     142
 10
22.0599
 20
6.46192
 30
0.0
 11
22.3043
 21
6.19293
 31
0.0
  0
LINE
  8
0
 62
     142
 10
22.3043
 20
6.19293
 30
0.0
 11
22.5225
 21
5.90142
 31
0.0
  0
LINE
  8
0
 62
     142
 10
22.5225
 20
5.90142
 30
0.0
 11
22.7124
 21
5.58925
 31
0.0
  0
LINE
  8
0
 62
     142
 10
22.7124
 20
5.58925
 30
0.0
 11
22.8719
 21
5.25836
 31
0.0
  0
LINE
  8
0
 62
     142
 10
22.8719
 20
5.25836
 30
0.0
 11
22.9994
 21
4.91069
 31
0.0
  0
LINE
  8
0
 62
     142
 10
22.9994
 20
4.91069
 30
0.0
 11
23.0929
 21
4.54812
 31
0.0
  0
LINE
  8
0
 62
     142
 10
23.0929
 20
4.54812
 30
0.0
 11
23.1504
 21
4.17264
 31
0.0
  0
LINE
  8
0
 62
     142
 10
23.1504
 20
4.17264
 30
0.0
 11
23.17
 21
3.78603
 31
0.0
  0
LINE
  8
0
 62
     142
 10
23.17
 20
3.78603
 30
0.0
 11
23.1504
 21
3.39958
 31
0.0
  0
LINE
  8
0
 62
     142
 10
23.1504
 20
3.39958
 30
0.0
 11
23.0929
 21
3.02414
 31
0.0
  0
LINE
  8
0
 62
     142
 10
23.0929
 20
3.02414
 30
0.0
 11
22.9994
 21
2.66162
 31
0.0
  0
LINE
  8
0
 62
     142
 10
22.9994
 20
2.66162
 30
0.0
 11
22.8719
 21
2.31396
 31
0.0
  0
LINE
  8
0
 62
     142
 10
22.8719
 20
2.31396
 30
0.0
 11
22.7124
 21
1.98307
 31
0.0
  0
LINE
  8
0
 62
     142
 10
22.7124
 20
1.98307
 30
0.0
 11
22.5225
 21
1.6709
 31
0.0
  0
LINE
  8
0
 62
     142
 10
22.5225
 20
1.6709
 30
0.0
 11
22.3043
 21
1.37934
 31
0.0
  0
LINE
  8
0
 62
     142
 10
22.3043
 20
1.37934
 30
0.0
 11
22.0599
 21
1.11024
 31
0.0
  0
LINE
  8
0
 62
     142
 10
22.0599
 20
1.11024
 30
0.0
 11
21.7908
 21
0.865668
 31
0.0
  0
LINE
  8
0
 62
     142
 10
21.7908
 20
0.865668
 30
0.0
 11
21.4993
 21
0.647461
 31
0.0
  0
LINE
  8
0
 62
     142
 10
21.4993
 20
0.647461
 30
0.0
 11
21.1871
 21
0.457574
 31
0.0
  0
LINE
  8
0
 62
     142
 10
21.1871
 20
0.457574
 30
0.0
 11
20.8561
 21
0.297851
 31
0.0
  0
LINE
  8
0
 62
     142
 10
20.8561
 20
0.297851
 30
0.0
 11
20.5085
 21
0.170356
 31
0.0
  0
LINE
  8
0
 62
     142
 10
20.5085
 20
0.170356
 30
0.0
 11
20.1458
 21
0.0768229
 31
0.0
  0
LINE
  8
0
 62
     142
 10
20.1458
 20
0.0768229
 30
0.0
 11
19.7703
 21
0.0193685
 31
0.0
  0
LINE
  8
0
 62
     142
 10
19.7703
 20
0.0193685
 30
0.0
 11
19.3838
 21
-0.000271267
 31
0.0
  0
LINE
  8
0
 62
     142
 10
19.3838
 20
-0.000271267
 30
0.0
 11
19.3838
 21
-0.000271267
 31
0.0
  0
LINE
  8
0
 62
     142
 10
19.3838
 20
6.28401
 30
0.0
 11
19.1288
 21
6.27111
 31
0.0
  0
LINE
  8
0
 62
     142
 10
19.1288
 20
6.27111
 30
0.0
 11
18.8811
 21
6.23318
 31
0.0
  0
LINE
  8
0
 62
     142
 10
18.8811
 20
6.23318
 30
0.0
 11
18.6419
 21
6.1715
 31
0.0
  0
LINE
  8
0
 62
     142
 10
18.6419
 20
6.1715
 30
0.0
 11
18.4126
 21
6.08735
 31
0.0
  0
LINE
  8
0
 62
     142
 10
18.4126
 20
6.08735
 30
0.0
 11
18.1944
 21
5.98204
 31
0.0
  0
LINE
  8
0
 62
     142
 10
18.1944
 20
5.98204
 30
0.0
 11
17.9885
 21
5.85672
 31
0.0
  0
LINE
  8
0
 62
     142
 10
17.9885
 20
5.85672
 30
0.0
 11
17.7962
 21
5.71278
 31
0.0
  0
LINE
  8
0
 62
     142
 10
17.7962
 20
5.71278
 30
0.0
 11
17.6189
 21
5.55138
 31
0.0
  0
LINE
  8
0
 62
     142
 10
17.6189
 20
5.55138
 30
0.0
 11
17.4576
 21
5.37392
 31
0.0
  0
LINE
  8
0
 62
     142
 10
17.4576
 20
5.37392
 30
0.0
 11
17.3137
 21
5.18153
 31
0.0
  0
LINE
  8
0
 62
     142
 10
17.3137
 20
5.18153
 30
0.0
 11
17.1885
 21
4.97558
 31
0.0
  0
LINE
  8
0
 62
     142
 10
17.1885
 20
4.97558
 30
0.0
 11
17.0833
 21
4.75726
 31
0.0
  0
LINE
  8
0
 62
     142
 10
17.0833
 20
4.75726
 30
0.0
 11
16.9992
 21
4.52789
 31
0.0
  0
LINE
  8
0
 62
     142
 10
16.9992
 20
4.52789
 30
0.0
 11
16.9375
 21
4.28874
 31
0.0
  0
LINE
  8
0
 62
     142
 10
16.9375
 20
4.28874
 30
0.0
 11
16.8997
 21
4.04101
 31
0.0
  0
LINE
  8
0
 62
     142
 10
16.8997
 20
4.04101
 30
0.0
 11
16.8868
 21
3.78603
 31
0.0
  0
LINE
  8
0
 62
     142
 10
16.8868
 20
3.78603
 30
0.0
 11
16.8997
 21
3.53108
 31
0.0
  0
LINE
  8
0
 62
     142
 10
16.8997
 20
3.53108
 30
0.0
 11
16.9375
 21
3.28342
 31
0.0
  0
LINE
  8
0
 62
     142
 10
16.9375
 20
3.28342
 30
0.0
 11
16.9992
 21
3.04428
 31
0.0
  0
LINE
  8
0
 62
     142
 10
16.9992
 20
3.04428
 30
0.0
 11
17.0833
 21
2.81494
 31
0.0
  0
LINE
  8
0
 62
     142
 10
17.0833
 20
2.81494
 30
0.0
 11
17.1885
 21
2.59674
 31
0.0
  0
LINE
  8
0
 62
     142
 10
17.1885
 20
2.59674
 30
0.0
 11
17.3137
 21
2.39085
 31
0.0
  0
LINE
  8
0
 62
     142
 10
17.3137
 20
2.39085
 30
0.0
 11
17.4576
 21
2.19857
 31
0.0
  0
LINE
  8
0
 62
     142
 10
17.4576
 20
2.19857
 30
0.0
 11
17.6189
 21
2.02115
 31
0.0
  0
LINE
  8
0
 62
     142
 10
17.6189
 20
2.02115
 30
0.0
 11
17.7962
 21
1.85992
 31
0.0
  0
LINE
  8
0
 62
     142
 10
17.7962
 20
1.85992
 30
0.0
 11
17.9885
 21
1.71604
 31
0.0
  0
LINE
  8
0
 62
     142
 10
17.9885
 20
1.71604
 30
0.0
 11
18.1944
 21
1.59082
 31
0.0
  0
LINE
  8
0
 62
     142
 10
18.1944
 20
1.59082
 30
0.0
 11
18.4126
 21
1.48557
 31
0.0
  0
LINE
  8
0
 62
     142
 10
18.4126
 20
1.48557
 30
0.0
 11
18.6419
 21
1.40147
 31
0.0
  0
LINE
  8
0
 62
     142
 10
18.6419
 20
1.40147
 30
0.0
 11
18.8811
 21
1.33984
 31
0.0
  0
LINE
  8
0
 62
     142
 10
18.8811
 20
1.33984
 30
0.0
 11
19.1288
 21
1.30198
 31
0.0
  0
LINE
  8
0
 62
     142
 10
19.1288
 20
1.30198
 30
0.0
 11
19.3838
 21
1.28901
 31
0.0
  0
LINE
  8
0
 62
     142
 10
19.3838
 20
1.28901
 30
0.0
 11
19.6386
 21
1.30198
 31
0.0
  0
LINE
  8
0
 62
     142
 10
19.6386
 20
1.30198
 30
0.0
 11
19.8864
 21
1.33984
 31
0.0
  0
LINE
  8
0
 62
     142
 10
19.8864
 20
1.33984
 30
0.0
 11
20.1256
 21
1.40147
 31
0.0
  0
LINE
  8
0
 62
     142
 10
20.1256
 20
1.40147
 30
0.0
 11
20.3549
 21
1.48557
 31
0.0
  0
LINE
  8
0
 62
     142
 10
20.3549
 20
1.48557
 30
0.0
 11
20.5731
 21
1.59082
 31
0.0
  0
LINE
  8
0
 62
     142
 10
20.5731
 20
1.59082
 30
0.0
 11
20.7789
 21
1.71604
 31
0.0
  0
LINE
  8
0
 62
     142
 10
20.7789
 20
1.71604
 30
0.0
 11
20.9713
 21
1.85992
 31
0.0
  0
LINE
  8
0
 62
     142
 10
20.9713
 20
1.85992
 30
0.0
 11
21.1486
 21
2.02115
 31
0.0
  0
LINE
  8
0
 62
     142
 10
21.1486
 20
2.02115
 30
0.0
 11
21.3099
 21
2.19857
 31
0.0
  0
LINE
  8
0
 62
     142
 10
21.3099
 20
2.19857
 30
0.0
 11
21.4538
 21
2.39085
 31
0.0
  0
LINE
  8
0
 62
     142
 10
21.4538
 20
2.39085
 30
0.0
 11
21.5789
 21
2.59674
 31
0.0
  0
LINE
  8
0
 62
     142
 10
21.5789
 20
2.59674
 30
0.0
 11
21.6842
 21
2.81494
 31
0.0
  0
LINE
  8
0
 62
     142
 10
21.6842
 20
2.81494
 30
0.0
 11
21.7683
 21
3.04428
 31
0.0
  0
LINE
  8
0
 62
     142
 10
21.7683
 20
3.04428
 30
0.0
 11
21.8299
 21
3.28342
 31
0.0
  0
LINE
  8
0
 62
     142
 10
21.8299
 20
3.28342
 30
0.0
 11
21.8678
 21
3.53108
 31
0.0
  0
LINE
  8
0
 62
     142
 10
21.8678
 20
3.53108
 30
0.0
 11
21.8807
 21
3.78603
 31
0.0
  0
LINE
  8
0
 62
     142
 10
21.8807
 20
3.78603
 30
0.0
 11
21.8678
 21
4.04101
 31
0.0
  0
LINE
  8
0
 62
     142
 10
21.8678
 20
4.04101
 30
0.0
 11
21.8299
 21
4.28874
 31
0.0
  0
LINE
  8
0
 62
     142
 10
21.8299
 20
4.28874
 30
0.0
 11
21.7683
 21
4.52789
 31
0.0
  0
LINE
  8
0
 62
     142
 10
21.7683
 20
4.52789
 30
0.0
 11
21.6842
 21
4.75726
 31
0.0
  0
LINE
  8
0
 62
     142
 10
21.6842
 20
4.75726
 30
0.0
 11
21.5789
 21
4.97558
 31
0.0
  0
LINE
  8
0
 62
     142
 10
21.5789
 20
4.97558
 30
0.0
 11
21.4538
 21
5.18153
 31
0.0
  0
LINE
  8
0
 62
     142
 10
21.4538
 20
5.18153
 30
0.0
 11
21.3099
 21
5.37392
 31
0.0
  0
LINE
  8
0
 62
     142
 10
21.3099
 20
5.37392
 30
0.0
 11
21.1486
 21
5.55138
 31
0.0
  0
LINE
  8
0
 62
     142
 10
21.1486
 20
5.55138
 30
0.0
 11
20.9713
 21
5.71278
 31
0.0
  0
LINE
  8
0
 62
     142
 10
20.9713
 20
5.71278
 30
0.0
 11
20.7789
 21
5.85672
 31
0.0
  0
LINE
  8
0
 62
     142
 10
20.7789
 20
5.85672
 30
0.0
 11
20.5731
 21
5.98204
 31
0.0
  0
LINE
  8
0
 62
     142
 10
20.5731
 20
5.98204
 30
0.0
 11
20.3549
 21
6.08735
 31
0.0
  0
LINE
  8
0
 62
     142
 10
20.3549
 20
6.08735
 30
0.0
 11
20.1256
 21
6.1715
 31
0.0
  0
LINE
  8
0
 62
     142
 10
20.1256
 20
6.1715
 30
0.0
 11
19.8864
 21
6.23318
 31
0.0
  0
LINE
  8
0
 62
     142
 10
19.8864
 20
6.23318
 30
0.0
 11
19.6386
 21
6.27111
 31
0.0
  0
LINE
  8
0
 62
     142
 10
19.6386
 20
6.27111
 30
0.0
 11
19.3838
 21
6.28401
 31
0.0
  0
LINE
  8
0
 62
     142
 10
19.3838
 20
6.28401
 30
0.0
 11
19.3838
 21
6.28401
 31
0.0
  0
LINE
  8
0
 62
     0
 10
18.6747
 20
19.7244
 30
0.0
 11
18.6747
 21
7.50375
 31
0.0
  0
LINE
  8
0
 62
     0
 10
18.6747
 20
7.50375
 30
0.0
 11
19.0249
 21
7.55442
 31
0.0
  0
LINE
  8
0
 62
     0
 10
19.0249
 20
7.55442
 30
0.0
 11
19.3838
 21
7.572
 31
0.0
  0
LINE
  8
0
 62
     0
 10
19.3838
 20
7.572
 30
0.0
 11
19.7426
 21
7.55442
 31
0.0
  0
LINE
  8
0
 62
     0
 10
19.7426
 20
7.55442
 30
0.0
 11
20.0928
 21
7.50375
 31
0.0
  0
LINE
  8
0
 62
     0
 10
20.0928
 20
7.50375
 30
0.0
 11
20.0928
 21
19.7244
 31
0.0
  0
LINE
  8
0
 62
     0
 10
20.0928
 20
19.7244
 30
0.0
 11
19.3838
 21
19.6856
 31
0.0
  0
LINE
  8
0
 62
     0
 10
19.3838
 20
19.6856
 30
0.0
 11
18.6747
 21
19.7244
 31
0.0
  0
LINE
  8
0
 62
     142
 10
4.32525
 20
8.20503
 30
0.0
 11
4.0191
 21
8.22054
 31
0.0
  0
LINE
  8
0
 62
     142
 10
4.0191
 20
8.22054
 30
0.0
 11
3.72168
 21
8.26611
 31
0.0
  0
LINE
  8
0
 62
     142
 10
3.72168
 20
8.26611
 30
0.0
 11
3.43451
 21
8.34011
 31
0.0
  0
LINE
  8
0
 62
     142
 10
3.43451
 20
8.34011
 30
0.0
 11
3.15918
 21
8.44114
 31
0.0
  0
LINE
  8
0
 62
     142
 10
3.15918
 20
8.44114
 30
0.0
 11
2.89708
 21
8.5676
 31
0.0
  0
LINE
  8
0
 62
     142
 10
2.89708
 20
8.5676
 30
0.0
 11
2.64979
 21
8.71804
 31
0.0
  0
LINE
  8
0
 62
     142
 10
2.64979
 20
8.71804
 30
0.0
 11
2.41883
 21
8.89085
 31
0.0
  0
LINE
  8
0
 62
     142
 10
2.41883
 20
8.89085
 30
0.0
 11
2.20572
 21
9.08458
 31
0.0
  0
LINE
  8
0
 62
     142
 10
2.20572
 20
9.08458
 30
0.0
 11
2.01199
 21
9.29775
 31
0.0
  0
LINE
  8
0
 62
     142
 10
2.01199
 20
9.29775
 30
0.0
 11
1.83919
 21
9.52875
 31
0.0
  0
LINE
  8
0
 62
     142
 10
1.83919
 20
9.52875
 30
0.0
 11
1.68881
 21
9.7761
 31
0.0
  0
LINE
  8
0
 62
     142
 10
1.68881
 20
9.7761
 30
0.0
 11
1.56228
 21
10.0383
 31
0.0
  0
LINE
  8
0
 62
     142
 10
1.56228
 20
10.0383
 30
0.0
 11
1.46132
 21
10.3138
 31
0.0
  0
LINE
  8
0
 62
     142
 10
1.46132
 20
10.3138
 30
0.0
 11
1.38726
 21
10.6011
 31
0.0
  0
LINE
  8
0
 62
     142
 10
1.38726
 20
10.6011
 30
0.0
 11
1.34174
 21
10.8987
 31
0.0
  0
LINE
  8
0
 62
     142
 10
1.34174
 20
10.8987
 30
0.0
 11
1.32623
 21
11.205
 31
0.0
  0
LINE
  8
0
 62
     142
 10
1.32623
 20
11.205
 30
0.0
 11
1.34174
 21
11.5112
 31
0.0
  0
LINE
  8
0
 62
     142
 10
1.34174
 20
11.5112
 30
0.0
 11
1.38726
 21
11.8085
 31
0.0
  0
LINE
  8
0
 62
     142
 10
1.38726
 20
11.8085
 30
0.0
 11
1.46132
 21
12.0957
 31
0.0
  0
LINE
  8
0
 62
     142
 10
1.46132
 20
12.0957
 30
0.0
 11
1.56228
 21
12.3711
 31
0.0
  0
LINE
  8
0
 62
     142
 10
1.56228
 20
12.3711
 30
0.0
 11
1.68881
 21
12.6332
 31
0.0
  0
LINE
  8
0
 62
     142
 10
1.68881
 20
12.6332
 30
0.0
 11
1.83919
 21
12.8805
 31
0.0
  0
LINE
  8
0
 62
     142
 10
1.83919
 20
12.8805
 30
0.0
 11
2.01199
 21
13.1114
 31
0.0
  0
LINE
  8
0
 62
     142
 10
2.01199
 20
13.1114
 30
0.0
 11
2.20572
 21
13.3245
 31
0.0
  0
LINE
  8
0
 62
     142
 10
2.20572
 20
13.3245
 30
0.0
 11
2.41883
 21
13.5182
 31
0.0
  0
LINE
  8
0
 62
     142
 10
2.41883
 20
13.5182
 30
0.0
 11
2.64979
 21
13.691
 31
0.0
  0
LINE
  8
0
 62
     142
 10
2.64979
 20
13.691
 30
0.0
 11
2.89708
 21
13.8414
 31
0.0
  0
LINE
  8
0
 62
     142
 10
2.89708
 20
13.8414
 30
0.0
 11
3.15918
 21
13.9679
 31
0.0
  0
LINE
  8
0
 62
     142
 10
3.15918
 20
13.9679
 30
0.0
 11
3.43451
 21
14.0689
 31
0.0
  0
LINE
  8
0
 62
     142
 10
3.43451
 20
14.0689
 30
0.0
 11
3.72168
 21
14.1429
 31
0.0
  0
LINE
  8
0
 62
     142
 10
3.72168
 20
14.1429
 30
0.0
 11
4.0191
 21
14.1885
 31
0.0
  0
LINE
  8
0
 62
     142
 10
4.0191
 20
14.1885
 30
0.0
 11
4.32525
 21
14.204
 31
0.0
  0
LINE
  8
0
 62
     142
 10
4.32525
 20
14.204
 30
0.0
 11
4.63151
 21
14.1885
 31
0.0
  0
LINE
  8
0
 62
     142
 10
4.63151
 20
14.1885
 30
0.0
 11
4.92904
 21
14.1429
 31
0.0
  0
LINE
  8
0
 62
     142
 10
4.92904
 20
14.1429
 30
0.0
 11
5.21625
 21
14.0689
 31
0.0
  0
LINE
  8
0
 62
     142
 10
5.21625
 20
14.0689
 30
0.0
 11
5.49169
 21
13.9679
 31
0.0
  0
LINE
  8
0
 62
     142
 10
5.49169
 20
13.9679
 30
0.0
 11
5.75379
 21
13.8414
 31
0.0
  0
LINE
  8
0
 62
     142
 10
5.75379
 20
13.8414
 30
0.0
 11
6.00108
 21
13.691
 31
0.0
  0
LINE
  8
0
 62
     142
 10
6.00108
 20
13.691
 30
0.0
 11
6.23204
 21
13.5182
 31
0.0
  0
LINE
  8
0
 62
     142
 10
6.23204
 20
13.5182
 30
0.0
 11
6.4451
 21
13.3245
 31
0.0
  0
LINE
  8
0
 62
     142
 10
6.4451
 20
13.3245
 30
0.0
 11
6.63872
 21
13.1114
 31
0.0
  0
LINE
  8
0
 62
     142
 10
6.63872
 20
13.1114
 30
0.0
 11
6.81153
 21
12.8805
 31
0.0
  0
LINE
  8
0
 62
     142
 10
6.81153
 20
12.8805
 30
0.0
 11
6.96186
 21
12.6332
 31
0.0
  0
LINE
  8
0
 62
     142
 10
6.96186
 20
12.6332
 30
0.0
 11
7.08826
 21
12.3711
 31
0.0
  0
LINE
  8
0
 62
     142
 10
7.08826
 20
12.3711
 30
0.0
 11
7.18924
 21
12.0957
 31
0.0
  0
LINE
  8
0
 62
     142
 10
7.18924
 20
12.0957
 30
0.0
 11
7.26324
 21
11.8085
 31
0.0
  0
LINE
  8
0
 62
     142
 10
7.26324
 20
11.8085
 30
0.0
 11
7.30875
 21
11.5112
 31
0.0
  0
LINE
  8
0
 62
     142
 10
7.30875
 20
11.5112
 30
0.0
 11
7.32428
 21
11.205
 31
0.0
  0
LINE
  8
0
 62
     142
 10
7.32428
 20
11.205
 30
0.0
 11
7.30892
 21
10.8987
 31
0.0
  0
LINE
  8
0
 62
     142
 10
7.30892
 20
10.8987
 30
0.0
 11
7.26351
 21
10.6011
 31
0.0
  0
LINE
  8
0
 62
     142
 10
7.26351
 20
10.6011
 30
0.0
 11
7.18961
 21
10.3138
 31
0.0
  0
LINE
  8
0
 62
     142
 10
7.18961
 20
10.3138
 30
0.0
 11
7.08871
 21
10.0383
 31
0.0
  0
LINE
  8
0
 62
     142
 10
7.08871
 20
10.0383
 30
0.0
 11
6.96229
 21
9.7761
 31
0.0
  0
LINE
  8
0
 62
     142
 10
6.96229
 20
9.7761
 30
0.0
 11
6.81196
 21
9.52875
 31
0.0
  0
LINE
  8
0
 62
     142
 10
6.81196
 20
9.52875
 30
0.0
 11
6.63917
 21
9.29775
 31
0.0
  0
LINE
  8
0
 62
     142
 10
6.63917
 20
9.29775
 30
0.0
 11
6.44542
 21
9.08458
 31
0.0
  0
LINE
  8
0
 62
     142
 10
6.44542
 20
9.08458
 30
0.0
 11
6.23232
 21
8.89085
 31
0.0
  0
LINE
  8
0
 62
     142
 10
6.23232
 20
8.89085
 30
0.0
 11
6.00136
 21
8.71804
 31
0.0
  0
LINE
  8
0
 62
     142
 10
6.00136
 20
8.71804
 30
0.0
 11
5.75401
 21
8.5676
 31
0.0
  0
LINE
  8
0
 62
     142
 10
5.75401
 20
8.5676
 30
0.0
 11
5.49186
 21
8.44114
 31
0.0
  0
LINE
  8
0
 62
     142
 10
5.49186
 20
8.44114
 30
0.0
 11
5.21636
 21
8.34011
 31
0.0
  0
LINE
  8
0
 62
     142
 10
5.21636
 20
8.34011
 30
0.0
 11
4.9291
 21
8.26611
 31
0.0
  0
LINE
  8
0
 62
     142
 10
4.9291
 20
8.26611
 30
0.0
 11
4.63151
 21
8.22054
 31
0.0
  0
LINE
  8
0
 62
     142
 10
4.63151
 20
8.22054
 30
0.0
 11
4.32525
 21
8.20503
 31
0.0
  0
LINE
  8
0
 62
     142
 10
4.32525
 20
8.20503
 30
0.0
 11
4.32525
 21
8.20503
 31
0.0
  0
LINE
  8
0
 62
     142
 10
4.32525
 20
13.0437
 30
0.0
 11
4.13753
 21
13.0342
 31
0.0
  0
LINE
  8
0
 62
     142
 10
4.13753
 20
13.0342
 30
0.0
 11
3.95514
 21
13.0063
 31
0.0
  0
LINE
  8
0
 62
     142
 10
3.95514
 20
13.0063
 30
0.0
 11
3.77908
 21
12.9609
 31
0.0
  0
LINE
  8
0
 62
     142
 10
3.77908
 20
12.9609
 30
0.0
 11
3.61025
 21
12.899
 31
0.0
  0
LINE
  8
0
 62
     142
 10
3.61025
 20
12.899
 30
0.0
 11
3.44949
 21
12.8214
 31
0.0
  0
LINE
  8
0
 62
     142
 10
3.44949
 20
12.8214
 30
0.0
 11
3.29785
 21
12.7292
 31
0.0
  0
LINE
  8
0
 62
     142
 10
3.29785
 20
12.7292
 30
0.0
 11
3.15625
 21
12.6232
 31
0.0
  0
LINE
  8
0
 62
     142
 10
3.15625
 20
12.6232
 30
0.0
 11
3.02561
 21
12.5044
 31
0.0
  0
LINE
  8
0
 62
     142
 10
3.02561
 20
12.5044
 30
0.0
 11
2.90679
 21
12.3738
 31
0.0
  0
LINE
  8
0
 62
     142
 10
2.90679
 20
12.3738
 30
0.0
 11
2.80083
 21
12.2322
 31
0.0
  0
LINE
  8
0
 62
     142
 10
2.80083
 20
12.2322
 30
0.0
 11
2.70861
 21
12.0806
 31
0.0
  0
LINE
  8
0
 62
     142
 10
2.70861
 20
12.0806
 30
0.0
 11
2.63103
 21
11.9199
 31
0.0
  0
LINE
  8
0
 62
     142
 10
2.63103
 20
11.9199
 30
0.0
 11
2.56907
 21
11.7511
 31
0.0
  0
LINE
  8
0
 62
     142
 10
2.56907
 20
11.7511
 30
0.0
 11
2.52371
 21
11.575
 31
0.0
  0
LINE
  8
0
 62
     142
 10
2.52371
 20
11.575
 30
0.0
 11
2.49576
 21
11.3927
 31
0.0
  0
LINE
  8
0
 62
     142
 10
2.49576
 20
11.3927
 30
0.0
 11
2.48628
 21
11.205
 31
0.0
  0
LINE
  8
0
 62
     142
 10
2.48628
 20
11.205
 30
0.0
 11
2.49576
 21
11.0171
 31
0.0
  0
LINE
  8
0
 62
     142
 10
2.49576
 20
11.0171
 30
0.0
 11
2.52371
 21
10.8346
 31
0.0
  0
LINE
  8
0
 62
     142
 10
2.52371
 20
10.8346
 30
0.0
 11
2.56907
 21
10.6584
 31
0.0
  0
LINE
  8
0
 62
     142
 10
2.56907
 20
10.6584
 30
0.0
 11
2.63103
 21
10.4895
 31
0.0
  0
LINE
  8
0
 62
     142
 10
2.63103
 20
10.4895
 30
0.0
 11
2.70861
 21
10.3286
 31
0.0
  0
LINE
  8
0
 62
     142
 10
2.70861
 20
10.3286
 30
0.0
 11
2.80083
 21
10.1769
 31
0.0
  0
LINE
  8
0
 62
     142
 10
2.80083
 20
10.1769
 30
0.0
 11
2.90679
 21
10.0353
 31
0.0
  0
LINE
  8
0
 62
     142
 10
2.90679
 20
10.0353
 30
0.0
 11
3.02561
 21
9.90451
 31
0.0
  0
LINE
  8
0
 62
     142
 10
3.02561
 20
9.90451
 30
0.0
 11
3.15625
 21
9.78569
 31
0.0
  0
LINE
  8
0
 62
     142
 10
3.15625
 20
9.78569
 30
0.0
 11
3.29785
 21
9.67969
 31
0.0
  0
LINE
  8
0
 62
     142
 10
3.29785
 20
9.67969
 30
0.0
 11
3.44949
 21
9.5874
 31
0.0
  0
LINE
  8
0
 62
     142
 10
3.44949
 20
9.5874
 30
0.0
 11
3.61025
 21
9.50982
 31
0.0
  0
LINE
  8
0
 62
     142
 10
3.61025
 20
9.50982
 30
0.0
 11
3.77908
 21
9.44792
 31
0.0
  0
LINE
  8
0
 62
     142
 10
3.77908
 20
9.44792
 30
0.0
 11
3.95514
 21
9.4025
 31
0.0
  0
LINE
  8
0
 62
     142
 10
3.95514
 20
9.4025
 30
0.0
 11
4.13753
 21
9.37457
 31
0.0
  0
LINE
  8
0
 62
     142
 10
4.13753
 20
9.37457
 30
0.0
 11
4.32525
 21
9.36501
 31
0.0
  0
LINE
  8
0
 62
     142
 10
4.32525
 20
9.36501
 30
0.0
 11
4.51307
 21
9.37457
 31
0.0
  0
LINE
  8
0
 62
     142
 10
4.51307
 20
9.37457
 30
0.0
 11
4.69547
 21
9.4025
 31
0.0
  0
LINE
  8
0
 62
     142
 10
4.69547
 20
9.4025
 30
0.0
 11
4.87164
 21
9.44792
 31
0.0
  0
LINE
  8
0
 62
     142
 10
4.87164
 20
9.44792
 30
0.0
 11
5.04053
 21
9.50982
 31
0.0
  0
LINE
  8
0
 62
     142
 10
5.04053
 20
9.50982
 30
0.0
 11
5.20122
 21
9.5874
 31
0.0
  0
LINE
  8
0
 62
     142
 10
5.20122
 20
9.5874
 30
0.0
 11
5.35281
 21
9.67969
 31
0.0
  0
LINE
  8
0
 62
     142
 10
5.35281
 20
9.67969
 30
0.0
 11
5.49442
 21
9.78569
 31
0.0
  0
LINE
  8
0
 62
     142
 10
5.49442
 20
9.78569
 30
0.0
 11
5.62506
 21
9.90451
 31
0.0
  0
LINE
  8
0
 62
     142
 10
5.62506
 20
9.90451
 30
0.0
 11
5.74376
 21
10.0353
 31
0.0
  0
LINE
  8
0
 62
     142
 10
5.74376
 20
10.0353
 30
0.0
 11
5.84967
 21
10.1769
 31
0.0
  0
LINE
  8
0
 62
     142
 10
5.84967
 20
10.1769
 30
0.0
 11
5.94183
 21
10.3286
 31
0.0
  0
LINE
  8
0
 62
     142
 10
5.94183
 20
10.3286
 30
0.0
 11
6.01932
 21
10.4895
 31
0.0
  0
LINE
  8
0
 62
     142
 10
6.01932
 20
10.4895
 30
0.0
 11
6.08122
 21
10.6584
 31
0.0
  0
LINE
  8
0
 62
     142
 10
6.08122
 20
10.6584
 30
0.0
 11
6.12657
 21
10.8346
 31
0.0
  0
LINE
  8
0
 62
     142
 10
6.12657
 20
10.8346
 30
0.0
 11
6.15446
 21
11.0171
 31
0.0
  0
LINE
  8
0
 62
     142
 10
6.15446
 20
11.0171
 30
0.0
 11
6.16401
 21
11.205
 31
0.0
  0
LINE
  8
0
 62
     142
 10
6.16401
 20
11.205
 30
0.0
 11
6.15462
 21
11.3927
 31
0.0
  0
LINE
  8
0
 62
     142
 10
6.15462
 20
11.3927
 30
0.0
 11
6.12685
 21
11.575
 31
0.0
  0
LINE
  8
0
 62
     142
 10
6.12685
 20
11.575
 30
0.0
 11
6.0816
 21
11.7511
 31
0.0
  0
LINE
  8
0
 62
     142
 10
6.0816
 20
11.7511
 30
0.0
 11
6.01975
 21
11.9199
 31
0.0
  0
LINE
  8
0
 62
     142
 10
6.01975
 20
11.9199
 30
0.0
 11
5.94228
 21
12.0806
 31
0.0
  0
LINE
  8
0
 62
     142
 10
5.94228
 20
12.0806
 30
0.0
 11
5.8501
 21
12.2322
 31
0.0
  0
LINE
  8
0
 62
     142
 10
5.8501
 20
12.2322
 30
0.0
 11
5.74419
 21
12.3738
 31
0.0
  0
LINE
  8
0
 62
     142
 10
5.74419
 20
12.3738
 30
0.0
 11
5.62538
 21
12.5044
 31
0.0
  0
LINE
  8
0
 62
     142
 10
5.62538
 20
12.5044
 30
0.0
 11
5.49474
 21
12.6232
 31
0.0
  0
LINE
  8
0
 62
     142
 10
5.49474
 20
12.6232
 30
0.0
 11
5.35308
 21
12.7292
 31
0.0
  0
LINE
  8
0
 62
     142
 10
5.35308
 20
12.7292
 30
0.0
 11
5.20144
 21
12.8214
 31
0.0
  0
LINE
  8
0
 62
     142
 10
5.20144
 20
12.8214
 30
0.0
 11
5.04064
 21
12.899
 31
0.0
  0
LINE
  8
0
 62
     142
 10
5.04064
 20
12.899
 30
0.0
 11
4.87169
 21
12.9609
 31
0.0
  0
LINE
  8
0
 62
     142
 10
4.87169
 20
12.9609
 30
0.0
 11
4.69553
 21
13.0063
 31
0.0
  0
LINE
  8
0
 62
     142
 10
4.69553
 20
13.0063
 30
0.0
 11
4.51307
 21
13.0342
 31
0.0
  0
LINE
  8
0
 62
     142
 10
4.51307
 20
13.0342
 30
0.0
 11
4.32525
 21
13.0437
 31
0.0
  0
LINE
  8
0
 62
     142
 10
4.32525
 20
13.0437
 30
0.0
 11
4.32525
 21
13.0437
 31
0.0
  0
LINE
  8
0
 62
     0
 10
14.2588
 20
22.1472
 30
0.0
 11
5.80376
 21
13.8105
 31
0.0
  0
LINE
  8
0
 62
     0
 10
5.80376
 20
13.8105
 30
0.0
 11
6.10428
 21
13.6148
 31
0.0
  0
LINE
  8
0
 62
     0
 10
6.10428
 20
13.6148
 30
0.0
 11
6.37858
 21
13.3857
 31
0.0
  0
LINE
  8
0
 62
     0
 10
6.37858
 20
13.3857
 30
0.0
 11
6.62375
 21
13.1261
 31
0.0
  0
LINE
  8
0
 62
     0
 10
6.62375
 20
13.1261
 30
0.0
 11
6.83703
 21
12.8388
 31
0.0
  0
LINE
  8
0
 62
     0
 10
6.83703
 20
12.8388
 30
0.0
 11
15.2607
 21
21.1435
 31
0.0
  0
LINE
  8
0
 62
     0
 10
15.2607
 20
21.1435
 30
0.0
 11
14.9901
 21
21.374
 31
0.0
  0
LINE
  8
0
 62
     0
 10
14.9901
 20
21.374
 30
0.0
 11
14.7326
 21
21.6188
 31
0.0
  0
LINE
  8
0
 62
     0
 10
14.7326
 20
21.6188
 30
0.0
 11
14.4886
 21
21.8767
 31
0.0
  0
LINE
  8
0
 62
     0
 10
14.4886
 20
21.8767
 30
0.0
 11
14.2588
 21
22.1472
 31
0.0
  0
LINE
  8
0
 62
     142
 10
16.2422
 20
41.2487
 30
0.0
 11
16.0035
 21
41.2608
 31
0.0
  0
LINE
  8
0
 62
     142
 10
16.0035
 20
41.2608
 30
0.0
 11
15.7717
 21
41.2964
 31
0.0
  0
LINE
  8
0
 62
     142
 10
15.7717
 20
41.2964
 30
0.0
 11
15.5478
 21
41.354
 31
0.0
  0
LINE
  8
0
 62
     142
 10
15.5478
 20
41.354
 30
0.0
 11
15.3332
 21
41.4326
 31
0.0
  0
LINE
  8
0
 62
     142
 10
15.3332
 20
41.4326
 30
0.0
 11
15.1289
 21
41.5313
 31
0.0
  0
LINE
  8
0
 62
     142
 10
15.1289
 20
41.5313
 30
0.0
 11
14.9363
 21
41.6483
 31
0.0
  0
LINE
  8
0
 62
     142
 10
14.9363
 20
41.6483
 30
0.0
 11
14.7562
 21
41.7831
 31
0.0
  0
LINE
  8
0
 62
     142
 10
14.7562
 20
41.7831
 30
0.0
 11
14.5903
 21
41.9339
 31
0.0
  0
LINE
  8
0
 62
     142
 10
14.5903
 20
41.9339
 30
0.0
 11
14.4393
 21
42.1
 31
0.0
  0
LINE
  8
0
 62
     142
 10
14.4393
 20
42.1
 30
0.0
 11
14.3047
 21
42.2799
 31
0.0
  0
LINE
  8
0
 62
     142
 10
14.3047
 20
42.2799
 30
0.0
 11
14.1876
 21
42.4726
 31
0.0
  0
LINE
  8
0
 62
     142
 10
14.1876
 20
42.4726
 30
0.0
 11
14.089
 21
42.6768
 31
0.0
  0
LINE
  8
0
 62
     142
 10
14.089
 20
42.6768
 30
0.0
 11
14.0104
 21
42.8915
 31
0.0
  0
LINE
  8
0
 62
     142
 10
14.0104
 20
42.8915
 30
0.0
 11
13.9528
 21
43.1153
 31
0.0
  0
LINE
  8
0
 62
     142
 10
13.9528
 20
43.1153
 30
0.0
 11
13.9174
 21
43.3471
 31
0.0
  0
LINE
  8
0
 62
     142
 10
13.9174
 20
43.3471
 30
0.0
 11
13.9053
 21
43.5858
 31
0.0
  0
LINE
  8
0
 62
     142
 10
13.9053
 20
43.5858
 30
0.0
 11
13.9174
 21
43.8243
 31
0.0
  0
LINE
  8
0
 62
     142
 10
13.9174
 20
43.8243
 30
0.0
 11
13.9528
 21
44.056
 31
0.0
  0
LINE
  8
0
 62
     142
 10
13.9528
 20
44.056
 30
0.0
 11
14.0104
 21
44.2797
 31
0.0
  0
LINE
  8
0
 62
     142
 10
14.0104
 20
44.2797
 30
0.0
 11
14.089
 21
44.4942
 31
0.0
  0
LINE
  8
0
 62
     142
 10
14.089
 20
44.4942
 30
0.0
 11
14.1876
 21
44.6983
 31
0.0
  0
LINE
  8
0
 62
     142
 10
14.1876
 20
44.6983
 30
0.0
 11
14.3047
 21
44.891
 31
0.0
  0
LINE
  8
0
 62
     142
 10
14.3047
 20
44.891
 30
0.0
 11
14.4393
 21
45.0708
 31
0.0
  0
LINE
  8
0
 62
     142
 10
14.4393
 20
45.0708
 30
0.0
 11
14.5903
 21
45.2368
 31
0.0
  0
LINE
  8
0
 62
     142
 10
14.5903
 20
45.2368
 30
0.0
 11
14.7562
 21
45.3876
 31
0.0
  0
LINE
  8
0
 62
     142
 10
14.7562
 20
45.3876
 30
0.0
 11
14.9363
 21
45.5224
 31
0.0
  0
LINE
  8
0
 62
     142
 10
14.9363
 20
45.5224
 30
0.0
 11
15.1289
 21
45.6394
 31
0.0
  0
LINE
  8
0
 62
     142
 10
15.1289
 20
45.6394
 30
0.0
 11
15.3332
 21
45.7379
 31
0.0
  0
LINE
  8
0
 62
     142
 10
15.3332
 20
45.7379
 30
0.0
 11
15.5478
 21
45.8165
 31
0.0
  0
LINE
  8
0
 62
     142
 10
15.5478
 20
45.8165
 30
0.0
 11
15.7717
 21
45.8743
 31
0.0
  0
LINE
  8
0
 62
     142
 10
15.7717
 20
45.8743
 30
0.0
 11
16.0035
 21
45.9097
 31
0.0
  0
LINE
  8
0
 62
     142
 10
16.0035
 20
45.9097
 30
0.0
 11
16.2422
 21
45.9218
 31
0.0
  0
LINE
  8
0
 62
     142
 10
16.2422
 20
45.9218
 30
0.0
 11
16.4807
 21
45.9097
 31
0.0
  0
LINE
  8
0
 62
     142
 10
16.4807
 20
45.9097
 30
0.0
 11
16.7124
 21
45.8743
 31
0.0
  0
LINE
  8
0
 62
     142
 10
16.7124
 20
45.8743
 30
0.0
 11
16.9361
 21
45.8165
 31
0.0
  0
LINE
  8
0
 62
     142
 10
16.9361
 20
45.8165
 30
0.0
 11
17.1506
 21
45.7379
 31
0.0
  0
LINE
  8
0
 62
     142
 10
17.1506
 20
45.7379
 30
0.0
 11
17.3547
 21
45.6394
 31
0.0
  0
LINE
  8
0
 62
     142
 10
17.3547
 20
45.6394
 30
0.0
 11
17.5474
 21
45.5224
 31
0.0
  0
LINE
  8
0
 62
     142
 10
17.5474
 20
45.5224
 30
0.0
 11
17.7272
 21
45.3876
 31
0.0
  0
LINE
  8
0
 62
     142
 10
17.7272
 20
45.3876
 30
0.0
 11
17.8931
 21
45.2368
 31
0.0
  0
LINE
  8
0
 62
     142
 10
17.8931
 20
45.2368
 30
0.0
 11
18.0439
 21
45.0708
 31
0.0
  0
LINE
  8
0
 62
     142
 10
18.0439
 20
45.0708
 30
0.0
 11
18.1786
 21
44.891
 31
0.0
  0
LINE
  8
0
 62
     142
 10
18.1786
 20
44.891
 30
0.0
 11
18.2957
 21
44.6983
 31
0.0
  0
LINE
  8
0
 62
     142
 10
18.2957
 20
44.6983
 30
0.0
 11
18.3942
 21
44.4942
 31
0.0
  0
LINE
  8
0
 62
     142
 10
18.3942
 20
44.4942
 30
0.0
 11
18.4728
 21
44.2797
 31
0.0
  0
LINE
  8
0
 62
     142
 10
18.4728
 20
44.2797
 30
0.0
 11
18.5304
 21
44.056
 31
0.0
  0
LINE
  8
0
 62
     142
 10
18.5304
 20
44.056
 30
0.0
 11
18.566
 21
43.8243
 31
0.0
  0
LINE
  8
0
 62
     142
 10
18.566
 20
43.8243
 30
0.0
 11
18.5781
 21
43.5858
 31
0.0
  0
LINE
  8
0
 62
     142
 10
18.5781
 20
43.5858
 30
0.0
 11
18.566
 21
43.3471
 31
0.0
  0
LINE
  8
0
 62
     142
 10
18.566
 20
43.3471
 30
0.0
 11
18.5304
 21
43.1153
 31
0.0
  0
LINE
  8
0
 62
     142
 10
18.5304
 20
43.1153
 30
0.0
 11
18.4728
 21
42.8915
 31
0.0
  0
LINE
  8
0
 62
     142
 10
18.4728
 20
42.8915
 30
0.0
 11
18.3942
 21
42.6768
 31
0.0
  0
LINE
  8
0
 62
     142
 10
18.3942
 20
42.6768
 30
0.0
 11
18.2957
 21
42.4726
 31
0.0
  0
LINE
  8
0
 62
     142
 10
18.2957
 20
42.4726
 30
0.0
 11
18.1786
 21
42.2799
 31
0.0
  0
LINE
  8
0
 62
     142
 10
18.1786
 20
42.2799
 30
0.0
 11
18.0439
 21
42.1
 31
0.0
  0
LINE
  8
0
 62
     142
 10
18.0439
 20
42.1
 30
0.0
 11
17.8931
 21
41.9339
 31
0.0
  0
LINE
  8
0
 62
     142
 10
17.8931
 20
41.9339
 30
0.0
 11
17.7272
 21
41.7831
 31
0.0
  0
LINE
  8
0
 62
     142
 10
17.7272
 20
41.7831
 30
0.0
 11
17.5474
 21
41.6483
 31
0.0
  0
LINE
  8
0
 62
     142
 10
17.5474
 20
41.6483
 30
0.0
 11
17.3547
 21
41.5313
 31
0.0
  0
LINE
  8
0
 62
     142
 10
17.3547
 20
41.5313
 30
0.0
 11
17.1506
 21
41.4326
 31
0.0
  0
LINE
  8
0
 62
     142
 10
17.1506
 20
41.4326
 30
0.0
 11
16.9361
 21
41.354
 31
0.0
  0
LINE
  8
0
 62
     142
 10
16.9361
 20
41.354
 30
0.0
 11
16.7124
 21
41.2964
 31
0.0
  0
LINE
  8
0
 62
     142
 10
16.7124
 20
41.2964
 30
0.0
 11
16.4807
 21
41.2608
 31
0.0
  0
LINE
  8
0
 62
     142
 10
16.4807
 20
41.2608
 30
0.0
 11
16.2422
 21
41.2487
 31
0.0
  0
LINE
  8
0
 62
     142
 10
16.2422
 20
41.2487
 30
0.0
 11
16.2422
 21
41.2487
 31
0.0
  0
LINE
  8
0
 62
     142
 10
16.2422
 20
44.8906
 30
0.0
 11
15.9794
 21
44.864
 31
0.0
  0
LINE
  8
0
 62
     142
 10
15.9794
 20
44.864
 30
0.0
 11
15.7346
 21
44.7879
 31
0.0
  0
LINE
  8
0
 62
     142
 10
15.7346
 20
44.7879
 30
0.0
 11
15.5128
 21
44.6675
 31
0.0
  0
LINE
  8
0
 62
     142
 10
15.5128
 20
44.6675
 30
0.0
 11
15.3194
 21
44.5081
 31
0.0
  0
LINE
  8
0
 62
     142
 10
15.3194
 20
44.5081
 30
0.0
 11
15.1599
 21
44.315
 31
0.0
  0
LINE
  8
0
 62
     142
 10
15.1599
 20
44.315
 30
0.0
 11
15.0393
 21
44.0933
 31
0.0
  0
LINE
  8
0
 62
     142
 10
15.0393
 20
44.0933
 30
0.0
 11
14.9631
 21
43.8485
 31
0.0
  0
LINE
  8
0
 62
     142
 10
14.9631
 20
43.8485
 30
0.0
 11
14.9365
 21
43.5858
 31
0.0
  0
LINE
  8
0
 62
     142
 10
14.9365
 20
43.5858
 30
0.0
 11
14.9631
 21
43.3231
 31
0.0
  0
LINE
  8
0
 62
     142
 10
14.9631
 20
43.3231
 30
0.0
 11
15.0393
 21
43.0781
 31
0.0
  0
LINE
  8
0
 62
     142
 10
15.0393
 20
43.0781
 30
0.0
 11
15.1599
 21
42.8564
 31
0.0
  0
LINE
  8
0
 62
     142
 10
15.1599
 20
42.8564
 30
0.0
 11
15.3194
 21
42.6629
 31
0.0
  0
LINE
  8
0
 62
     142
 10
15.3194
 20
42.6629
 30
0.0
 11
15.5128
 21
42.5035
 31
0.0
  0
LINE
  8
0
 62
     142
 10
15.5128
 20
42.5035
 30
0.0
 11
15.7346
 21
42.3828
 31
0.0
  0
LINE
  8
0
 62
     142
 10
15.7346
 20
42.3828
 30
0.0
 11
15.9794
 21
42.3067
 31
0.0
  0
LINE
  8
0
 62
     142
 10
15.9794
 20
42.3067
 30
0.0
 11
16.2422
 21
42.28
 31
0.0
  0
LINE
  8
0
 62
     142
 10
16.2422
 20
42.28
 30
0.0
 11
16.505
 21
42.3067
 31
0.0
  0
LINE
  8
0
 62
     142
 10
16.505
 20
42.3067
 30
0.0
 11
16.7497
 21
42.3828
 31
0.0
  0
LINE
  8
0
 62
     142
 10
16.7497
 20
42.3828
 30
0.0
 11
16.9714
 21
42.5035
 31
0.0
  0
LINE
  8
0
 62
     142
 10
16.9714
 20
42.5035
 30
0.0
 11
17.1644
 21
42.6629
 31
0.0
  0
LINE
  8
0
 62
     142
 10
17.1644
 20
42.6629
 30
0.0
 11
17.3239
 21
42.8564
 31
0.0
  0
LINE
  8
0
 62
     142
 10
17.3239
 20
42.8564
 30
0.0
 11
17.4443
 21
43.0781
 31
0.0
  0
LINE
  8
0
 62
     142
 10
17.4443
 20
43.0781
 30
0.0
 11
17.5204
 21
43.3231
 31
0.0
  0
LINE
  8
0
 62
     142
 10
17.5204
 20
43.3231
 30
0.0
 11
17.5469
 21
43.5858
 31
0.0
  0
LINE
  8
0
 62
     142
 10
17.5469
 20
43.5858
 30
0.0
 11
17.5204
 21
43.8485
 31
0.0
  0
LINE
  8
0
 62
     142
 10
17.5204
 20
43.8485
 30
0.0
 11
17.4443
 21
44.0933
 31
0.0
  0
LINE
  8
0
 62
     142
 10
17.4443
 20
44.0933
 30
0.0
 11
17.3239
 21
44.315
 31
0.0
  0
LINE
  8
0
 62
     142
 10
17.3239
 20
44.315
 30
0.0
 11
17.1644
 21
44.5081
 31
0.0
  0
LINE
  8
0
 62
     142
 10
17.1644
 20
44.5081
 30
0.0
 11
16.9714
 21
44.6675
 31
0.0
  0
LINE
  8
0
 62
     142
 10
16.9714
 20
44.6675
 30
0.0
 11
16.7497
 21
44.7879
 31
0.0
  0
LINE
  8
0
 62
     142
 10
16.7497
 20
44.7879
 30
0.0
 11
16.505
 21
44.864
 31
0.0
  0
LINE
  8
0
 62
     142
 10
16.505
 20
44.864
 30
0.0
 11
16.2422
 21
44.8906
 31
0.0
  0
LINE
  8
0
 62
     142
 10
16.2422
 20
44.8906
 30
0.0
 11
16.2422
 21
44.8906
 31
0.0
  0
LINE
  8
0
 62
     0
 10
27.2842
 20
49.869
 30
0.0
 11
26.9356
 21
49.8058
 31
0.0
  0
LINE
  8
0
 62
     0
 10
26.9356
 20
49.8058
 30
0.0
 11
26.5753
 21
49.7831
 31
0.0
  0
LINE
  8
0
 62
     0
 10
26.5753
 20
49.7831
 30
0.0
 11
26.2144
 21
49.8058
 31
0.0
  0
LINE
  8
0
 62
     0
 10
26.2144
 20
49.8058
 30
0.0
 11
25.8663
 21
49.869
 31
0.0
  0
LINE
  8
0
 62
     0
 10
25.8663
 20
49.869
 30
0.0
 11
25.8663
 21
44.2947
 31
0.0
  0
LINE
  8
0
 62
     0
 10
25.8663
 20
44.2947
 30
0.0
 11
18.4678
 21
44.2947
 31
0.0
  0
LINE
  8
0
 62
     0
 10
18.4678
 20
44.2947
 30
0.0
 11
18.5496
 21
43.9488
 31
0.0
  0
LINE
  8
0
 62
     0
 10
18.5496
 20
43.9488
 30
0.0
 11
18.5781
 21
43.5858
 31
0.0
  0
LINE
  8
0
 62
     0
 10
18.5781
 20
43.5858
 30
0.0
 11
18.5496
 21
43.2225
 31
0.0
  0
LINE
  8
0
 62
     0
 10
18.5496
 20
43.2225
 30
0.0
 11
18.4678
 21
42.8767
 31
0.0
  0
LINE
  8
0
 62
     0
 10
18.4678
 20
42.8767
 30
0.0
 11
26.2813
 21
42.8767
 31
0.0
  0
LINE
  8
0
 62
     0
 10
26.2813
 20
42.8767
 30
0.0
 11
30.6378
 21
38.5193
 31
0.0
  0
LINE
  8
0
 62
     0
 10
30.6378
 20
38.5193
 30
0.0
 11
23.5029
 21
31.3844
 31
0.0
  0
LINE
  8
0
 62
     0
 10
23.5029
 20
31.3844
 30
0.0
 11
23.7735
 21
31.1544
 31
0.0
  0
LINE
  8
0
 62
     0
 10
23.7735
 20
31.1544
 30
0.0
 11
24.0311
 21
30.9103
 31
0.0
  0
LINE
  8
0
 62
     0
 10
24.0311
 20
30.9103
 30
0.0
 11
24.2753
 21
30.6524
 31
0.0
  0
LINE
  8
0
 62
     0
 10
24.2753
 20
30.6524
 30
0.0
 11
24.5057
 21
30.3817
 31
0.0
  0
LINE
  8
0
 62
     0
 10
24.5057
 20
30.3817
 30
0.0
 11
34.9033
 21
40.78
 31
0.0
  0
LINE
  8
0
 62
     0
 10
34.9033
 20
40.78
 30
0.0
 11
34.6242
 21
41.0014
 31
0.0
  0
LINE
  8
0
 62
     0
 10
34.6242
 20
41.0014
 30
0.0
 11
34.3633
 21
41.2429
 31
0.0
  0
LINE
  8
0
 62
     0
 10
34.3633
 20
41.2429
 30
0.0
 11
34.1218
 21
41.5035
 31
0.0
  0
LINE
  8
0
 62
     0
 10
34.1218
 20
41.5035
 30
0.0
 11
33.9006
 21
41.7819
 31
0.0
  0
LINE
  8
0
 62
     0
 10
33.9006
 20
41.7819
 30
0.0
 11
31.6406
 21
39.5222
 31
0.0
  0
LINE
  8
0
 62
     0
 10
31.6406
 20
39.5222
 30
0.0
 11
27.2842
 21
43.8788
 31
0.0
  0
LINE
  8
0
 62
     0
 10
27.2842
 20
43.8788
 30
0.0
 11
27.2842
 21
49.869
 31
0.0
  0
LINE
  8
0
 62
     0
 10
27.2842
 20
49.869
 30
0.0
 11
27.2842
 21
49.869
 31
0.0
  0
LINE
  8
0
 62
     0
 10
0.962999
 20
37.4197
 30
0.0
 11
0.995389
 21
37.4744
 31
0.0
  0
LINE
  8
0
 62
     0
 10
0.995389
 20
37.4744
 30
0.0
 11
1.04291
 21
37.5424
 31
0.0
  0
LINE
  8
0
 62
     0
 10
1.04291
 20
37.5424
 30
0.0
 11
1.10889
 21
37.6174
 31
0.0
  0
LINE
  8
0
 62
     0
 10
1.10889
 20
37.6174
 30
0.0
 11
1.19661
 21
37.6931
 31
0.0
  0
LINE
  8
0
 62
     0
 10
1.19661
 20
37.6931
 30
0.0
 11
1.30935
 21
37.7629
 31
0.0
  0
LINE
  8
0
 62
     0
 10
1.30935
 20
37.7629
 30
0.0
 11
1.45047
 21
37.8208
 31
0.0
  0
LINE
  8
0
 62
     0
 10
1.45047
 20
37.8208
 30
0.0
 11
1.62326
 21
37.8601
 31
0.0
  0
LINE
  8
0
 62
     0
 10
1.62326
 20
37.8601
 30
0.0
 11
1.831
 21
37.8747
 31
0.0
  0
LINE
  8
0
 62
     0
 10
1.831
 20
37.8747
 30
0.0
 11
1.93317
 21
37.8715
 31
0.0
  0
LINE
  8
0
 62
     0
 10
1.93317
 20
37.8715
 30
0.0
 11
2.03988
 21
37.8606
 31
0.0
  0
LINE
  8
0
 62
     0
 10
2.03988
 20
37.8606
 30
0.0
 11
2.14931
 21
37.8401
 31
0.0
  0
LINE
  8
0
 62
     0
 10
2.14931
 20
37.8401
 30
0.0
 11
2.25956
 21
37.8086
 31
0.0
  0
LINE
  8
0
 62
     0
 10
2.25956
 20
37.8086
 30
0.0
 11
2.36882
 21
37.7642
 31
0.0
  0
LINE
  8
0
 62
     0
 10
2.36882
 20
37.7642
 30
0.0
 11
2.47515
 21
37.7051
 31
0.0
  0
LINE
  8
0
 62
     0
 10
2.47515
 20
37.7051
 30
0.0
 11
2.57682
 21
37.6296
 31
0.0
  0
LINE
  8
0
 62
     0
 10
2.57682
 20
37.6296
 30
0.0
 11
2.67199
 21
37.536
 31
0.0
  0
LINE
  8
0
 62
     0
 10
2.67199
 20
37.536
 30
0.0
 11
2.72353
 21
37.4729
 31
0.0
  0
LINE
  8
0
 62
     0
 10
2.72353
 20
37.4729
 30
0.0
 11
2.77681
 21
37.3969
 31
0.0
  0
LINE
  8
0
 62
     0
 10
2.77681
 20
37.3969
 30
0.0
 11
2.82915
 21
37.3057
 31
0.0
  0
LINE
  8
0
 62
     0
 10
2.82915
 20
37.3057
 30
0.0
 11
2.87799
 21
37.1968
 31
0.0
  0
LINE
  8
0
 62
     0
 10
2.87799
 20
37.1968
 30
0.0
 11
2.92057
 21
37.0678
 31
0.0
  0
LINE
  8
0
 62
     0
 10
2.92057
 20
37.0678
 30
0.0
 11
2.95432
 21
36.9162
 31
0.0
  0
LINE
  8
0
 62
     0
 10
2.95432
 20
36.9162
 30
0.0
 11
2.97646
 21
36.7399
 31
0.0
  0
LINE
  8
0
 62
     0
 10
2.97646
 20
36.7399
 30
0.0
 11
2.98449
 21
36.536
 31
0.0
  0
LINE
  8
0
 62
     0
 10
2.98449
 20
36.536
 30
0.0
 11
2.979
 21
36.354
 31
0.0
  0
LINE
  8
0
 62
     0
 10
2.979
 20
36.354
 30
0.0
 11
2.96343
 21
36.1925
 31
0.0
  0
LINE
  8
0
 62
     0
 10
2.96343
 20
36.1925
 30
0.0
 11
2.93907
 21
36.0499
 31
0.0
  0
LINE
  8
0
 62
     0
 10
2.93907
 20
36.0499
 30
0.0
 11
2.90722
 21
35.9246
 31
0.0
  0
LINE
  8
0
 62
     0
 10
2.90722
 20
35.9246
 30
0.0
 11
2.86919
 21
35.8151
 31
0.0
  0
LINE
  8
0
 62
     0
 10
2.86919
 20
35.8151
 30
0.0
 11
2.82617
 21
35.7201
 31
0.0
  0
LINE
  8
0
 62
     0
 10
2.82617
 20
35.7201
 30
0.0
 11
2.77951
 21
35.6381
 31
0.0
  0
LINE
  8
0
 62
     0
 10
2.77951
 20
35.6381
 30
0.0
 11
2.73053
 21
35.5672
 31
0.0
  0
LINE
  8
0
 62
     0
 10
2.73053
 20
35.5672
 30
0.0
 11
2.54682
 21
35.3689
 31
0.0
  0
LINE
  8
0
 62
     0
 10
2.54682
 20
35.3689
 30
0.0
 11
2.3221
 21
35.2267
 31
0.0
  0
LINE
  8
0
 62
     0
 10
2.3221
 20
35.2267
 30
0.0
 11
2.06858
 21
35.141
 31
0.0
  0
LINE
  8
0
 62
     0
 10
2.06858
 20
35.141
 30
0.0
 11
1.79878
 21
35.1122
 31
0.0
  0
LINE
  8
0
 62
     0
 10
1.79878
 20
35.1122
 30
0.0
 11
1.68463
 21
35.1172
 31
0.0
  0
LINE
  8
0
 62
     0
 10
1.68463
 20
35.1172
 30
0.0
 11
1.54015
 21
35.1397
 31
0.0
  0
LINE
  8
0
 62
     0
 10
1.54015
 20
35.1397
 30
0.0
 11
1.37674
 21
35.1908
 31
0.0
  0
LINE
  8
0
 62
     0
 10
1.37674
 20
35.1908
 30
0.0
 11
1.206
 21
35.2819
 31
0.0
  0
LINE
  8
0
 62
     0
 10
1.206
 20
35.2819
 30
0.0
 11
1.11073
 21
35.3556
 31
0.0
  0
LINE
  8
0
 62
     0
 10
1.11073
 20
35.3556
 30
0.0
 11
1.04107
 21
35.4249
 31
0.0
  0
LINE
  8
0
 62
     0
 10
1.04107
 20
35.4249
 30
0.0
 11
0.98915
 21
35.4903
 31
0.0
  0
LINE
  8
0
 62
     0
 10
0.98915
 20
35.4903
 30
0.0
 11
0.947265
 21
35.5515
 31
0.0
  0
LINE
  8
0
 62
     0
 10
0.947265
 20
35.5515
 30
0.0
 11
0.936524
 21
35.1493
 31
0.0
  0
LINE
  8
0
 62
     0
 10
0.936524
 20
35.1493
 30
0.0
 11
0.455024
 21
35.1493
 31
0.0
  0
LINE
  8
0
 62
     0
 10
0.455024
 20
35.1493
 30
0.0
 11
0.465767
 21
35.6257
 31
0.0
  0
LINE
  8
0
 62
     0
 10
0.465767
 20
35.6257
 30
0.0
 11
0.465767
 21
38.9706
 31
0.0
  0
LINE
  8
0
 62
     0
 10
0.465767
 20
38.9706
 30
0.0
 11
0.962999
 21
38.9706
 31
0.0
  0
LINE
  8
0
 62
     0
 10
0.962999
 20
38.9706
 30
0.0
 11
0.962999
 21
37.4197
 31
0.0
  0
LINE
  8
0
 62
     0
 10
1.71474
 20
37.536
 30
0.0
 11
1.58051
 21
37.5261
 31
0.0
  0
LINE
  8
0
 62
     0
 10
1.58051
 20
37.5261
 30
0.0
 11
1.46306
 21
37.4975
 31
0.0
  0
LINE
  8
0
 62
     0
 10
1.46306
 20
37.4975
 30
0.0
 11
1.36122
 21
37.4529
 31
0.0
  0
LINE
  8
0
 62
     0
 10
1.36122
 20
37.4529
 30
0.0
 11
1.27393
 21
37.3946
 31
0.0
  0
LINE
  8
0
 62
     0
 10
1.27393
 20
37.3946
 30
0.0
 11
1.19998
 21
37.3247
 31
0.0
  0
LINE
  8
0
 62
     0
 10
1.19998
 20
37.3247
 30
0.0
 11
1.1384
 21
37.2458
 31
0.0
  0
LINE
  8
0
 62
     0
 10
1.1384
 20
37.2458
 30
0.0
 11
1.08794
 21
37.1603
 31
0.0
  0
LINE
  8
0
 62
     0
 10
1.08794
 20
37.1603
 30
0.0
 11
1.04753
 21
37.0704
 31
0.0
  0
LINE
  8
0
 62
     0
 10
1.04753
 20
37.0704
 30
0.0
 11
1.01606
 21
36.9785
 31
0.0
  0
LINE
  8
0
 62
     0
 10
1.01606
 20
36.9785
 30
0.0
 11
0.992458
 21
36.8869
 31
0.0
  0
LINE
  8
0
 62
     0
 10
0.992458
 20
36.8869
 30
0.0
 11
0.975478
 21
36.7982
 31
0.0
  0
LINE
  8
0
 62
     0
 10
0.975478
 20
36.7982
 30
0.0
 11
0.964139
 21
36.7144
 31
0.0
  0
LINE
  8
0
 62
     0
 10
0.964139
 20
36.7144
 30
0.0
 11
0.957249
 21
36.6382
 31
0.0
  0
LINE
  8
0
 62
     0
 10
0.957249
 20
36.6382
 30
0.0
 11
0.953722
 21
36.5717
 31
0.0
  0
LINE
  8
0
 62
     0
 10
0.953722
 20
36.5717
 30
0.0
 11
0.95242
 21
36.5172
 31
0.0
  0
LINE
  8
0
 62
     0
 10
0.95242
 20
36.5172
 30
0.0
 11
0.952257
 21
36.4772
 31
0.0
  0
LINE
  8
0
 62
     0
 10
0.952257
 20
36.4772
 30
0.0
 11
0.95242
 21
36.4372
 31
0.0
  0
LINE
  8
0
 62
     0
 10
0.95242
 20
36.4372
 30
0.0
 11
0.953668
 21
36.3839
 31
0.0
  0
LINE
  8
0
 62
     0
 10
0.953668
 20
36.3839
 30
0.0
 11
0.95714
 21
36.3197
 31
0.0
  0
LINE
  8
0
 62
     0
 10
0.95714
 20
36.3197
 30
0.0
 11
0.963813
 21
36.2465
 31
0.0
  0
LINE
  8
0
 62
     0
 10
0.963813
 20
36.2465
 30
0.0
 11
0.974826
 21
36.1668
 31
0.0
  0
LINE
  8
0
 62
     0
 10
0.974826
 20
36.1668
 30
0.0
 11
0.991319
 21
36.0826
 31
0.0
  0
LINE
  8
0
 62
     0
 10
0.991319
 20
36.0826
 30
0.0
 11
1.01427
 21
35.996
 31
0.0
  0
LINE
  8
0
 62
     0
 10
1.01427
 20
35.996
 30
0.0
 11
1.04487
 21
35.9094
 31
0.0
  0
LINE
  8
0
 62
     0
 10
1.04487
 20
35.9094
 30
0.0
 11
1.08409
 21
35.8247
 31
0.0
  0
LINE
  8
0
 62
     0
 10
1.08409
 20
35.8247
 30
0.0
 11
1.13314
 21
35.7443
 31
0.0
  0
LINE
  8
0
 62
     0
 10
1.13314
 20
35.7443
 30
0.0
 11
1.19303
 21
35.6704
 31
0.0
  0
LINE
  8
0
 62
     0
 10
1.19303
 20
35.6704
 30
0.0
 11
1.26481
 21
35.6049
 31
0.0
  0
LINE
  8
0
 62
     0
 10
1.26481
 20
35.6049
 30
0.0
 11
1.34966
 21
35.5503
 31
0.0
  0
LINE
  8
0
 62
     0
 10
1.34966
 20
35.5503
 30
0.0
 11
1.44863
 21
35.5085
 31
0.0
  0
LINE
  8
0
 62
     0
 10
1.44863
 20
35.5085
 30
0.0
 11
1.56278
 21
35.4819
 31
0.0
  0
LINE
  8
0
 62
     0
 10
1.56278
 20
35.4819
 30
0.0
 11
1.69325
 21
35.4725
 31
0.0
  0
LINE
  8
0
 62
     0
 10
1.69325
 20
35.4725
 30
0.0
 11
1.90256
 21
35.499
 31
0.0
  0
LINE
  8
0
 62
     0
 10
1.90256
 20
35.499
 30
0.0
 11
2.07232
 21
35.5726
 31
0.0
  0
LINE
  8
0
 62
     0
 10
2.07232
 20
35.5726
 30
0.0
 11
2.20606
 21
35.6846
 31
0.0
  0
LINE
  8
0
 62
     0
 10
2.20606
 20
35.6846
 30
0.0
 11
2.30746
 21
35.8256
 31
0.0
  0
LINE
  8
0
 62
     0
 10
2.30746
 20
35.8256
 30
0.0
 11
2.37999
 21
35.9869
 31
0.0
  0
LINE
  8
0
 62
     0
 10
2.37999
 20
35.9869
 30
0.0
 11
2.4274
 21
36.1597
 31
0.0
  0
LINE
  8
0
 62
     0
 10
2.4274
 20
36.1597
 30
0.0
 11
2.45318
 21
36.335
 31
0.0
  0
LINE
  8
0
 62
     0
 10
2.45318
 20
36.335
 30
0.0
 11
2.46099
 21
36.5038
 31
0.0
  0
LINE
  8
0
 62
     0
 10
2.46099
 20
36.5038
 30
0.0
 11
2.46018
 21
36.559
 31
0.0
  0
LINE
  8
0
 62
     0
 10
2.46018
 20
36.559
 30
0.0
 11
2.45736
 21
36.6242
 31
0.0
  0
LINE
  8
0
 62
     0
 10
2.45736
 20
36.6242
 30
0.0
 11
2.45156
 21
36.6974
 31
0.0
  0
LINE
  8
0
 62
     0
 10
2.45156
 20
36.6974
 30
0.0
 11
2.44189
 21
36.7768
 31
0.0
  0
LINE
  8
0
 62
     0
 10
2.44189
 20
36.7768
 30
0.0
 11
2.42757
 21
36.8606
 31
0.0
  0
LINE
  8
0
 62
     0
 10
2.42757
 20
36.8606
 30
0.0
 11
2.40771
 21
36.9467
 31
0.0
  0
LINE
  8
0
 62
     0
 10
2.40771
 20
36.9467
 30
0.0
 11
2.38146
 21
37.0336
 31
0.0
  0
LINE
  8
0
 62
     0
 10
2.38146
 20
37.0336
 30
0.0
 11
2.34793
 21
37.1192
 31
0.0
  0
LINE
  8
0
 62
     0
 10
2.34793
 20
37.1192
 30
0.0
 11
2.30626
 21
37.2017
 31
0.0
  0
LINE
  8
0
 62
     0
 10
2.30626
 20
37.2017
 30
0.0
 11
2.25558
 21
37.2793
 31
0.0
  0
LINE
  8
0
 62
     0
 10
2.25558
 20
37.2793
 30
0.0
 11
2.1951
 21
37.35
 31
0.0
  0
LINE
  8
0
 62
     0
 10
2.1951
 20
37.35
 30
0.0
 11
2.12392
 21
37.4119
 31
0.0
  0
LINE
  8
0
 62
     0
 10
2.12392
 20
37.4119
 30
0.0
 11
2.04112
 21
37.4635
 31
0.0
  0
LINE
  8
0
 62
     0
 10
2.04112
 20
37.4635
 30
0.0
 11
1.9459
 21
37.5025
 31
0.0
  0
LINE
  8
0
 62
     0
 10
1.9459
 20
37.5025
 30
0.0
 11
1.8374
 21
37.5274
 31
0.0
  0
LINE
  8
0
 62
     0
 10
1.8374
 20
37.5274
 30
0.0
 11
1.71474
 21
37.536
 31
0.0
  0
LINE
  8
0
 62
     0
 10
5.21203
 20
35.1493
 30
0.0
 11
5.17447
 21
35.3461
 31
0.0
  0
LINE
  8
0
 62
     0
 10
5.17447
 20
35.3461
 30
0.0
 11
5.16499
 21
35.5468
 31
0.0
  0
LINE
  8
0
 62
     0
 10
5.16499
 20
35.5468
 30
0.0
 11
5.07042
 21
35.3999
 31
0.0
  0
LINE
  8
0
 62
     0
 10
5.07042
 20
35.3999
 30
0.0
 11
4.9675
 21
35.2861
 31
0.0
  0
LINE
  8
0
 62
     0
 10
4.9675
 20
35.2861
 30
0.0
 11
4.85921
 21
35.2013
 31
0.0
  0
LINE
  8
0
 62
     0
 10
4.85921
 20
35.2013
 30
0.0
 11
4.74864
 21
35.1412
 31
0.0
  0
LINE
  8
0
 62
     0
 10
4.74864
 20
35.1412
 30
0.0
 11
4.63889
 21
35.1018
 31
0.0
  0
LINE
  8
0
 62
     0
 10
4.63889
 20
35.1018
 30
0.0
 11
4.53293
 21
35.0787
 31
0.0
  0
LINE
  8
0
 62
     0
 10
4.53293
 20
35.0787
 30
0.0
 11
4.43386
 21
35.0679
 31
0.0
  0
LINE
  8
0
 62
     0
 10
4.43386
 20
35.0679
 30
0.0
 11
4.34472
 21
35.0653
 31
0.0
  0
LINE
  8
0
 62
     0
 10
4.34472
 20
35.0653
 30
0.0
 11
4.12978
 21
35.081
 31
0.0
  0
LINE
  8
0
 62
     0
 10
4.12978
 20
35.081
 30
0.0
 11
3.94168
 21
35.1258
 31
0.0
  0
LINE
  8
0
 62
     0
 10
3.94168
 20
35.1258
 30
0.0
 11
3.78103
 21
35.1972
 31
0.0
  0
LINE
  8
0
 62
     0
 10
3.78103
 20
35.1972
 30
0.0
 11
3.64828
 21
35.2919
 31
0.0
  0
LINE
  8
0
 62
     0
 10
3.64828
 20
35.2919
 30
0.0
 11
3.54411
 21
35.4074
 31
0.0
  0
LINE
  8
0
 62
     0
 10
3.54411
 20
35.4074
 30
0.0
 11
3.46897
 21
35.5403
 31
0.0
  0
LINE
  8
0
 62
     0
 10
3.46897
 20
35.5403
 30
0.0
 11
3.4235
 21
35.6881
 31
0.0
  0
LINE
  8
0
 62
     0
 10
3.4235
 20
35.6881
 30
0.0
 11
3.40826
 21
35.8475
 31
0.0
  0
LINE
  8
0
 62
     0
 10
3.40826
 20
35.8475
 30
0.0
 11
3.41217
 21
35.9325
 31
0.0
  0
LINE
  8
0
 62
     0
 10
3.41217
 20
35.9325
 30
0.0
 11
3.42594
 21
36.0265
 31
0.0
  0
LINE
  8
0
 62
     0
 10
3.42594
 20
36.0265
 30
0.0
 11
3.45236
 21
36.1269
 31
0.0
  0
LINE
  8
0
 62
     0
 10
3.45236
 20
36.1269
 30
0.0
 11
3.49431
 21
36.2308
 31
0.0
  0
LINE
  8
0
 62
     0
 10
3.49431
 20
36.2308
 30
0.0
 11
3.55458
 21
36.3354
 31
0.0
  0
LINE
  8
0
 62
     0
 10
3.55458
 20
36.3354
 30
0.0
 11
3.63601
 21
36.4381
 31
0.0
  0
LINE
  8
0
 62
     0
 10
3.63601
 20
36.4381
 30
0.0
 11
3.7416
 21
36.5357
 31
0.0
  0
LINE
  8
0
 62
     0
 10
3.7416
 20
36.5357
 30
0.0
 11
3.87403
 21
36.6257
 31
0.0
  0
LINE
  8
0
 62
     0
 10
3.87403
 20
36.6257
 30
0.0
 11
3.98676
 21
36.679
 31
0.0
  0
LINE
  8
0
 62
     0
 10
3.98676
 20
36.679
 30
0.0
 11
4.1084
 21
36.7203
 31
0.0
  0
LINE
  8
0
 62
     0
 10
4.1084
 20
36.7203
 30
0.0
 11
4.23481
 21
36.751
 31
0.0
  0
LINE
  8
0
 62
     0
 10
4.23481
 20
36.751
 30
0.0
 11
4.36182
 21
36.7729
 31
0.0
  0
LINE
  8
0
 62
     0
 10
4.36182
 20
36.7729
 30
0.0
 11
4.48535
 21
36.7872
 31
0.0
  0
LINE
  8
0
 62
     0
 10
4.48535
 20
36.7872
 30
0.0
 11
4.60135
 21
36.7957
 31
0.0
  0
LINE
  8
0
 62
     0
 10
4.60135
 20
36.7957
 30
0.0
 11
4.70557
 21
36.7996
 31
0.0
  0
LINE
  8
0
 62
     0
 10
4.70557
 20
36.7996
 30
0.0
 11
4.794
 21
36.8006
 31
0.0
  0
LINE
  8
0
 62
     0
 10
4.794
 20
36.8006
 30
0.0
 11
4.88271
 21
36.7994
 31
0.0
  0
LINE
  8
0
 62
     0
 10
4.88271
 20
36.7994
 30
0.0
 11
4.96463
 21
36.7964
 31
0.0
  0
LINE
  8
0
 62
     0
 10
4.96463
 20
36.7964
 30
0.0
 11
5.05126
 21
36.7915
 31
0.0
  0
LINE
  8
0
 62
     0
 10
5.05126
 20
36.7915
 30
0.0
 11
5.15424
 21
36.785
 31
0.0
  0
LINE
  8
0
 62
     0
 10
5.15424
 20
36.785
 30
0.0
 11
5.15272
 21
36.9987
 31
0.0
  0
LINE
  8
0
 62
     0
 10
5.15272
 20
36.9987
 30
0.0
 11
5.14225
 21
37.1579
 31
0.0
  0
LINE
  8
0
 62
     0
 10
5.14225
 20
37.1579
 30
0.0
 11
5.11382
 21
37.2774
 31
0.0
  0
LINE
  8
0
 62
     0
 10
5.11382
 20
37.2774
 30
0.0
 11
5.05849
 21
37.3721
 31
0.0
  0
LINE
  8
0
 62
     0
 10
5.05849
 20
37.3721
 30
0.0
 11
4.96431
 21
37.4554
 31
0.0
  0
LINE
  8
0
 62
     0
 10
4.96431
 20
37.4554
 30
0.0
 11
4.84435
 21
37.5092
 31
0.0
  0
LINE
  8
0
 62
     0
 10
4.84435
 20
37.5092
 30
0.0
 11
4.71653
 21
37.5382
 31
0.0
  0
LINE
  8
0
 62
     0
 10
4.71653
 20
37.5382
 30
0.0
 11
4.59874
 21
37.5468
 31
0.0
  0
LINE
  8
0
 62
     0
 10
4.59874
 20
37.5468
 30
0.0
 11
4.43153
 21
37.5318
 31
0.0
  0
LINE
  8
0
 62
     0
 10
4.43153
 20
37.5318
 30
0.0
 11
4.30371
 21
37.4914
 31
0.0
  0
LINE
  8
0
 62
     0
 10
4.30371
 20
37.4914
 30
0.0
 11
4.2099
 21
37.4324
 31
0.0
  0
LINE
  8
0
 62
     0
 10
4.2099
 20
37.4324
 30
0.0
 11
4.14475
 21
37.3617
 31
0.0
  0
LINE
  8
0
 62
     0
 10
4.14475
 20
37.3617
 30
0.0
 11
4.10297
 21
37.2858
 31
0.0
  0
LINE
  8
0
 62
     0
 10
4.10297
 20
37.2858
 30
0.0
 11
4.07921
 21
37.2118
 31
0.0
  0
LINE
  8
0
 62
     0
 10
4.07921
 20
37.2118
 30
0.0
 11
4.06814
 21
37.1465
 31
0.0
  0
LINE
  8
0
 62
     0
 10
4.06814
 20
37.1465
 30
0.0
 11
4.06451
 21
37.0965
 31
0.0
  0
LINE
  8
0
 62
     0
 10
4.06451
 20
37.0965
 30
0.0
 11
3.56651
 21
37.0965
 31
0.0
  0
LINE
  8
0
 62
     0
 10
3.56651
 20
37.0965
 30
0.0
 11
3.58089
 21
37.2079
 31
0.0
  0
LINE
  8
0
 62
     0
 10
3.58089
 20
37.2079
 30
0.0
 11
3.60796
 21
37.3324
 31
0.0
  0
LINE
  8
0
 62
     0
 10
3.60796
 20
37.3324
 30
0.0
 11
3.66064
 21
37.4644
 31
0.0
  0
LINE
  8
0
 62
     0
 10
3.66064
 20
37.4644
 30
0.0
 11
3.75201
 21
37.5994
 31
0.0
  0
LINE
  8
0
 62
     0
 10
3.75201
 20
37.5994
 30
0.0
 11
3.83501
 21
37.6757
 31
0.0
  0
LINE
  8
0
 62
     0
 10
3.83501
 20
37.6757
 30
0.0
 11
3.93132
 21
37.7381
 31
0.0
  0
LINE
  8
0
 62
     0
 10
3.93132
 20
37.7381
 30
0.0
 11
4.03765
 21
37.7878
 31
0.0
  0
LINE
  8
0
 62
     0
 10
4.03765
 20
37.7878
 30
0.0
 11
4.15093
 21
37.826
 31
0.0
  0
LINE
  8
0
 62
     0
 10
4.15093
 20
37.826
 30
0.0
 11
4.2679
 21
37.8537
 31
0.0
  0
LINE
  8
0
 62
     0
 10
4.2679
 20
37.8537
 30
0.0
 11
4.38542
 21
37.8721
 31
0.0
  0
LINE
  8
0
 62
     0
 10
4.38542
 20
37.8721
 30
0.0
 11
4.50032
 21
37.8824
 31
0.0
  0
LINE
  8
0
 62
     0
 10
4.50032
 20
37.8824
 30
0.0
 11
4.60949
 21
37.8856
 31
0.0
  0
LINE
  8
0
 62
     0
 10
4.60949
 20
37.8856
 30
0.0
 11
4.75472
 21
37.8797
 31
0.0
  0
LINE
  8
0
 62
     0
 10
4.75472
 20
37.8797
 30
0.0
 11
4.89914
 21
37.8622
 31
0.0
  0
LINE
  8
0
 62
     0
 10
4.89914
 20
37.8622
 30
0.0
 11
5.03911
 21
37.8328
 31
0.0
  0
LINE
  8
0
 62
     0
 10
5.03911
 20
37.8328
 30
0.0
 11
5.17122
 21
37.7908
 31
0.0
  0
LINE
  8
0
 62
     0
 10
5.17122
 20
37.7908
 30
0.0
 11
5.29194
 21
37.7364
 31
0.0
  0
LINE
  8
0
 62
     0
 10
5.29194
 20
37.7364
 30
0.0
 11
5.39774
 21
37.6689
 31
0.0
  0
LINE
  8
0
 62
     0
 10
5.39774
 20
37.6689
 30
0.0
 11
5.48519
 21
37.5882
 31
0.0
  0
LINE
  8
0
 62
     0
 10
5.48519
 20
37.5882
 30
0.0
 11
5.55072
 21
37.494
 31
0.0
  0
LINE
  8
0
 62
     0
 10
5.55072
 20
37.494
 30
0.0
 11
5.60075
 21
37.3803
 31
0.0
  0
LINE
  8
0
 62
     0
 10
5.60075
 20
37.3803
 30
0.0
 11
5.62799
 21
37.276
 31
0.0
  0
LINE
  8
0
 62
     0
 10
5.62799
 20
37.276
 30
0.0
 11
5.63921
 21
37.1786
 31
0.0
  0
LINE
  8
0
 62
     0
 10
5.63921
 20
37.1786
 30
0.0
 11
5.6415
 21
37.0858
 31
0.0
  0
LINE
  8
0
 62
     0
 10
5.6415
 20
37.0858
 30
0.0
 11
5.62001
 21
35.8163
 31
0.0
  0
LINE
  8
0
 62
     0
 10
5.62001
 20
35.8163
 30
0.0
 11
5.62028
 21
35.7867
 31
0.0
  0
LINE
  8
0
 62
     0
 10
5.62028
 20
35.7867
 30
0.0
 11
5.62136
 21
35.7322
 31
0.0
  0
LINE
  8
0
 62
     0
 10
5.62136
 20
35.7322
 30
0.0
 11
5.62354
 21
35.6578
 31
0.0
  0
LINE
  8
0
 62
     0
 10
5.62354
 20
35.6578
 30
0.0
 11
5.62711
 21
35.5681
 31
0.0
  0
LINE
  8
0
 62
     0
 10
5.62711
 20
35.5681
 30
0.0
 11
5.63243
 21
35.4676
 31
0.0
  0
LINE
  8
0
 62
     0
 10
5.63243
 20
35.4676
 30
0.0
 11
5.63981
 21
35.3613
 31
0.0
  0
LINE
  8
0
 62
     0
 10
5.63981
 20
35.3613
 30
0.0
 11
5.64953
 21
35.2536
 31
0.0
  0
LINE
  8
0
 62
     0
 10
5.64953
 20
35.2536
 30
0.0
 11
5.662
 21
35.1493
 31
0.0
  0
LINE
  8
0
 62
     0
 10
5.662
 20
35.1493
 30
0.0
 11
5.21203
 21
35.1493
 31
0.0
  0
LINE
  8
0
 62
     0
 10
4.86828
 20
36.4568
 30
0.0
 11
4.82433
 21
36.4567
 31
0.0
  0
LINE
  8
0
 62
     0
 10
4.82433
 20
36.4567
 30
0.0
 11
4.76932
 21
36.4557
 31
0.0
  0
LINE
  8
0
 62
     0
 10
4.76932
 20
36.4557
 30
0.0
 11
4.70508
 21
36.4532
 31
0.0
  0
LINE
  8
0
 62
     0
 10
4.70508
 20
36.4532
 30
0.0
 11
4.63363
 21
36.4483
 31
0.0
  0
LINE
  8
0
 62
     0
 10
4.63363
 20
36.4483
 30
0.0
 11
4.55686
 21
36.4403
 31
0.0
  0
LINE
  8
0
 62
     0
 10
4.55686
 20
36.4403
 30
0.0
 11
4.47667
 21
36.4283
 31
0.0
  0
LINE
  8
0
 62
     0
 10
4.47667
 20
36.4283
 30
0.0
 11
4.39501
 21
36.4115
 31
0.0
  0
LINE
  8
0
 62
     0
 10
4.39501
 20
36.4115
 30
0.0
 11
4.31375
 21
36.3893
 31
0.0
  0
LINE
  8
0
 62
     0
 10
4.31375
 20
36.3893
 30
0.0
 11
4.23486
 21
36.3607
 31
0.0
  0
LINE
  8
0
 62
     0
 10
4.23486
 20
36.3607
 30
0.0
 11
4.16026
 21
36.325
 31
0.0
  0
LINE
  8
0
 62
     0
 10
4.16026
 20
36.325
 30
0.0
 11
4.0919
 21
36.2813
 31
0.0
  0
LINE
  8
0
 62
     0
 10
4.0919
 20
36.2813
 30
0.0
 11
4.03163
 21
36.229
 31
0.0
  0
LINE
  8
0
 62
     0
 10
4.03163
 20
36.229
 30
0.0
 11
3.98139
 21
36.1672
 31
0.0
  0
LINE
  8
0
 62
     0
 10
3.98139
 20
36.1672
 30
0.0
 11
3.94314
 21
36.095
 31
0.0
  0
LINE
  8
0
 62
     0
 10
3.94314
 20
36.095
 30
0.0
 11
3.91878
 21
36.0118
 31
0.0
  0
LINE
  8
0
 62
     0
 10
3.91878
 20
36.0118
 30
0.0
 11
3.91026
 21
35.9168
 31
0.0
  0
LINE
  8
0
 62
     0
 10
3.91026
 20
35.9168
 30
0.0
 11
3.91569
 21
35.8482
 31
0.0
  0
LINE
  8
0
 62
     0
 10
3.91569
 20
35.8482
 30
0.0
 11
3.93375
 21
35.7732
 31
0.0
  0
LINE
  8
0
 62
     0
 10
3.93375
 20
35.7732
 30
0.0
 11
3.96729
 21
35.6964
 31
0.0
  0
LINE
  8
0
 62
     0
 10
3.96729
 20
35.6964
 30
0.0
 11
4.01893
 21
35.6228
 31
0.0
  0
LINE
  8
0
 62
     0
 10
4.01893
 20
35.6228
 30
0.0
 11
4.09136
 21
35.5571
 31
0.0
  0
LINE
  8
0
 62
     0
 10
4.09136
 20
35.5571
 30
0.0
 11
4.18739
 21
35.5042
 31
0.0
  0
LINE
  8
0
 62
     0
 10
4.18739
 20
35.5042
 30
0.0
 11
4.30968
 21
35.4689
 31
0.0
  0
LINE
  8
0
 62
     0
 10
4.30968
 20
35.4689
 30
0.0
 11
4.46099
 21
35.456
 31
0.0
  0
LINE
  8
0
 62
     0
 10
4.46099
 20
35.456
 30
0.0
 11
4.63932
 21
35.4746
 31
0.0
  0
LINE
  8
0
 62
     0
 10
4.63932
 20
35.4746
 30
0.0
 11
4.79351
 21
35.5294
 31
0.0
  0
LINE
  8
0
 62
     0
 10
4.79351
 20
35.5294
 30
0.0
 11
4.92296
 21
35.619
 31
0.0
  0
LINE
  8
0
 62
     0
 10
4.92296
 20
35.619
 30
0.0
 11
5.02724
 21
35.7421
 31
0.0
  0
LINE
  8
0
 62
     0
 10
5.02724
 20
35.7421
 30
0.0
 11
5.06424
 21
35.8085
 31
0.0
  0
LINE
  8
0
 62
     0
 10
5.06424
 20
35.8085
 30
0.0
 11
5.09256
 21
35.875
 31
0.0
  0
LINE
  8
0
 62
     0
 10
5.09256
 20
35.875
 30
0.0
 11
5.11356
 21
35.9444
 31
0.0
  0
LINE
  8
0
 62
     0
 10
5.11356
 20
35.9444
 30
0.0
 11
5.12847
 21
36.0199
 31
0.0
  0
LINE
  8
0
 62
     0
 10
5.12847
 20
36.0199
 30
0.0
 11
5.13872
 21
36.1042
 31
0.0
  0
LINE
  8
0
 62
     0
 10
5.13872
 20
36.1042
 30
0.0
 11
5.14551
 21
36.2004
 31
0.0
  0
LINE
  8
0
 62
     0
 10
5.14551
 20
36.2004
 30
0.0
 11
5.15022
 21
36.3114
 31
0.0
  0
LINE
  8
0
 62
     0
 10
5.15022
 20
36.3114
 30
0.0
 11
5.15424
 21
36.4403
 31
0.0
  0
LINE
  8
0
 62
     0
 10
5.15424
 20
36.4403
 30
0.0
 11
5.02333
 21
36.4526
 31
0.0
  0
LINE
  8
0
 62
     0
 10
5.02333
 20
36.4526
 30
0.0
 11
4.86828
 21
36.4568
 31
0.0
  0
LINE
  8
0
 62
     0
 10
6.43951
 20
38.9647
 30
0.0
 11
6.9375
 21
38.9647
 31
0.0
  0
LINE
  8
0
 62
     0
 10
6.9375
 20
38.9647
 30
0.0
 11
6.9375
 21
35.1493
 31
0.0
  0
LINE
  8
0
 62
     0
 10
6.9375
 20
35.1493
 30
0.0
 11
6.43951
 21
35.1493
 31
0.0
  0
LINE
  8
0
 62
     0
 10
6.43951
 20
35.1493
 30
0.0
 11
6.43951
 21
38.9647
 31
0.0
  0
LINE
  8
0
 62
     0
 10
7.38678
 20
37.8163
 30
0.0
 11
7.8585
 21
37.8163
 31
0.0
  0
LINE
  8
0
 62
     0
 10
7.8585
 20
37.8163
 30
0.0
 11
7.8585
 21
38.3721
 31
0.0
  0
LINE
  8
0
 62
     0
 10
7.8585
 20
38.3721
 30
0.0
 11
8.35047
 21
38.531
 31
0.0
  0
LINE
  8
0
 62
     0
 10
8.35047
 20
38.531
 30
0.0
 11
8.35047
 21
37.8163
 31
0.0
  0
LINE
  8
0
 62
     0
 10
8.35047
 20
37.8163
 30
0.0
 11
8.94325
 21
37.8163
 31
0.0
  0
LINE
  8
0
 62
     0
 10
8.94325
 20
37.8163
 30
0.0
 11
8.94325
 21
37.451
 31
0.0
  0
LINE
  8
0
 62
     0
 10
8.94325
 20
37.451
 30
0.0
 11
8.35047
 21
37.451
 31
0.0
  0
LINE
  8
0
 62
     0
 10
8.35047
 20
37.451
 30
0.0
 11
8.35047
 21
35.8582
 31
0.0
  0
LINE
  8
0
 62
     0
 10
8.35047
 20
35.8582
 30
0.0
 11
8.35113
 21
35.8053
 31
0.0
  0
LINE
  8
0
 62
     0
 10
8.35113
 20
35.8053
 30
0.0
 11
8.35601
 21
35.7472
 31
0.0
  0
LINE
  8
0
 62
     0
 10
8.35601
 20
35.7472
 30
0.0
 11
8.36914
 21
35.6882
 31
0.0
  0
LINE
  8
0
 62
     0
 10
8.36914
 20
35.6882
 30
0.0
 11
8.39475
 21
35.6317
 31
0.0
  0
LINE
  8
0
 62
     0
 10
8.39475
 20
35.6317
 30
0.0
 11
8.43701
 21
35.5813
 31
0.0
  0
LINE
  8
0
 62
     0
 10
8.43701
 20
35.5813
 30
0.0
 11
8.5
 21
35.5407
 31
0.0
  0
LINE
  8
0
 62
     0
 10
8.5
 20
35.5407
 30
0.0
 11
8.58794
 21
35.5136
 31
0.0
  0
LINE
  8
0
 62
     0
 10
8.58794
 20
35.5136
 30
0.0
 11
8.70503
 21
35.5038
 31
0.0
  0
LINE
  8
0
 62
     0
 10
8.70503
 20
35.5038
 30
0.0
 11
8.84586
 21
35.5129
 31
0.0
  0
LINE
  8
0
 62
     0
 10
8.84586
 20
35.5129
 30
0.0
 11
8.94325
 21
35.53
 31
0.0
  0
LINE
  8
0
 62
     0
 10
8.94325
 20
35.53
 30
0.0
 11
8.94325
 21
35.1443
 31
0.0
  0
LINE
  8
0
 62
     0
 10
8.94325
 20
35.1443
 30
0.0
 11
8.77012
 21
35.1225
 31
0.0
  0
LINE
  8
0
 62
     0
 10
8.77012
 20
35.1225
 30
0.0
 11
8.53028
 21
35.1122
 31
0.0
  0
LINE
  8
0
 62
     0
 10
8.53028
 20
35.1122
 30
0.0
 11
8.37071
 21
35.1188
 31
0.0
  0
LINE
  8
0
 62
     0
 10
8.37071
 20
35.1188
 30
0.0
 11
8.23335
 21
35.1399
 31
0.0
  0
LINE
  8
0
 62
     0
 10
8.23335
 20
35.1399
 30
0.0
 11
8.11774
 21
35.1771
 31
0.0
  0
LINE
  8
0
 62
     0
 10
8.11774
 20
35.1771
 30
0.0
 11
8.02371
 21
35.2329
 31
0.0
  0
LINE
  8
0
 62
     0
 10
8.02371
 20
35.2329
 30
0.0
 11
7.95107
 21
35.3089
 31
0.0
  0
LINE
  8
0
 62
     0
 10
7.95107
 20
35.3089
 30
0.0
 11
7.89947
 21
35.4072
 31
0.0
  0
LINE
  8
0
 62
     0
 10
7.89947
 20
35.4072
 30
0.0
 11
7.86871
 21
35.5297
 31
0.0
  0
LINE
  8
0
 62
     0
 10
7.86871
 20
35.5297
 30
0.0
 11
7.8585
 21
35.6785
 31
0.0
  0
LINE
  8
0
 62
     0
 10
7.8585
 20
35.6785
 30
0.0
 11
7.8585
 21
37.451
 31
0.0
  0
LINE
  8
0
 62
     0
 10
7.8585
 20
37.451
 30
0.0
 11
7.38678
 21
37.451
 31
0.0
  0
LINE
  8
0
 62
     0
 10
7.38678
 20
37.451
 30
0.0
 11
7.38678
 21
37.8163
 31
0.0
  0
LINE
  8
0
 62
     0
 10
9.40326
 20
38.9597
 30
0.0
 11
10.001
 21
38.9597
 31
0.0
  0
LINE
  8
0
 62
     0
 10
10.001
 20
38.9597
 30
0.0
 11
10.001
 21
38.4147
 31
0.0
  0
LINE
  8
0
 62
     0
 10
10.001
 20
38.4147
 30
0.0
 11
9.40326
 21
38.4147
 31
0.0
  0
LINE
  8
0
 62
     0
 10
9.40326
 20
38.4147
 30
0.0
 11
9.40326
 21
38.9597
 31
0.0
  0
LINE
  8
0
 62
     0
 10
9.456
 20
37.8056
 30
0.0
 11
9.95301
 21
37.8056
 31
0.0
  0
LINE
  8
0
 62
     0
 10
9.95301
 20
37.8056
 30
0.0
 11
9.95301
 21
35.1493
 31
0.0
  0
LINE
  8
0
 62
     0
 10
9.95301
 20
35.1493
 30
0.0
 11
9.456
 21
35.1493
 31
0.0
  0
LINE
  8
0
 62
     0
 10
9.456
 20
35.1493
 30
0.0
 11
9.456
 21
37.8056
 31
0.0
  0
LINE
  8
0
 62
     0
 10
10.8105
 20
37.451
 30
0.0
 11
10.7997
 21
37.8065
 31
0.0
  0
LINE
  8
0
 62
     0
 10
10.7997
 20
37.8065
 30
0.0
 11
11.3027
 21
37.8065
 31
0.0
  0
LINE
  8
0
 62
     0
 10
11.3027
 20
37.8065
 30
0.0
 11
11.3027
 21
37.4197
 31
0.0
  0
LINE
  8
0
 62
     0
 10
11.3027
 20
37.4197
 30
0.0
 11
11.4025
 21
37.5593
 31
0.0
  0
LINE
  8
0
 62
     0
 10
11.4025
 20
37.5593
 30
0.0
 11
11.5094
 21
37.6672
 31
0.0
  0
LINE
  8
0
 62
     0
 10
11.5094
 20
37.6672
 30
0.0
 11
11.6207
 21
37.7474
 31
0.0
  0
LINE
  8
0
 62
     0
 10
11.6207
 20
37.7474
 30
0.0
 11
11.7335
 21
37.804
 31
0.0
  0
LINE
  8
0
 62
     0
 10
11.7335
 20
37.804
 30
0.0
 11
11.8451
 21
37.841
 31
0.0
  0
LINE
  8
0
 62
     0
 10
11.8451
 20
37.841
 30
0.0
 11
11.9527
 21
37.8625
 31
0.0
  0
LINE
  8
0
 62
     0
 10
11.9527
 20
37.8625
 30
0.0
 11
12.0534
 21
37.8724
 31
0.0
  0
LINE
  8
0
 62
     0
 10
12.0534
 20
37.8724
 30
0.0
 11
12.1445
 21
37.8747
 31
0.0
  0
LINE
  8
0
 62
     0
 10
12.1445
 20
37.8747
 30
0.0
 11
12.3464
 21
37.8614
 31
0.0
  0
LINE
  8
0
 62
     0
 10
12.3464
 20
37.8614
 30
0.0
 11
12.5143
 21
37.8246
 31
0.0
  0
LINE
  8
0
 62
     0
 10
12.5143
 20
37.8246
 30
0.0
 11
12.6519
 21
37.769
 31
0.0
  0
LINE
  8
0
 62
     0
 10
12.6519
 20
37.769
 30
0.0
 11
12.7627
 21
37.6994
 31
0.0
  0
LINE
  8
0
 62
     0
 10
12.7627
 20
37.6994
 30
0.0
 11
12.8505
 21
37.6208
 31
0.0
  0
LINE
  8
0
 62
     0
 10
12.8505
 20
37.6208
 30
0.0
 11
12.9188
 21
37.5378
 31
0.0
  0
LINE
  8
0
 62
     0
 10
12.9188
 20
37.5378
 30
0.0
 11
12.9714
 21
37.4551
 31
0.0
  0
LINE
  8
0
 62
     0
 10
12.9714
 20
37.4551
 30
0.0
 11
13.0118
 21
37.3778
 31
0.0
  0
LINE
  8
0
 62
     0
 10
13.0118
 20
37.3778
 30
0.0
 11
13.0519
 21
37.4415
 31
0.0
  0
LINE
  8
0
 62
     0
 10
13.0519
 20
37.4415
 30
0.0
 11
13.1068
 21
37.5176
 31
0.0
  0
LINE
  8
0
 62
     0
 10
13.1068
 20
37.5176
 30
0.0
 11
13.1794
 21
37.5999
 31
0.0
  0
LINE
  8
0
 62
     0
 10
13.1794
 20
37.5999
 30
0.0
 11
13.2725
 21
37.6815
 31
0.0
  0
LINE
  8
0
 62
     0
 10
13.2725
 20
37.6815
 30
0.0
 11
13.3889
 21
37.7564
 31
0.0
  0
LINE
  8
0
 62
     0
 10
13.3889
 20
37.7564
 30
0.0
 11
13.5314
 21
37.8178
 31
0.0
  0
LINE
  8
0
 62
     0
 10
13.5314
 20
37.8178
 30
0.0
 11
13.7029
 21
37.8594
 31
0.0
  0
LINE
  8
0
 62
     0
 10
13.7029
 20
37.8594
 30
0.0
 11
13.9063
 21
37.8747
 31
0.0
  0
LINE
  8
0
 62
     0
 10
13.9063
 20
37.8747
 30
0.0
 11
13.9799
 21
37.8728
 31
0.0
  0
LINE
  8
0
 62
     0
 10
13.9799
 20
37.8728
 30
0.0
 11
14.0574
 21
37.8664
 31
0.0
  0
LINE
  8
0
 62
     0
 10
14.0574
 20
37.8664
 30
0.0
 11
14.1375
 21
37.855
 31
0.0
  0
LINE
  8
0
 62
     0
 10
14.1375
 20
37.855
 30
0.0
 11
14.219
 21
37.8378
 31
0.0
  0
LINE
  8
0
 62
     0
 10
14.219
 20
37.8378
 30
0.0
 11
14.3008
 21
37.8142
 31
0.0
  0
LINE
  8
0
 62
     0
 10
14.3008
 20
37.8142
 30
0.0
 11
14.3817
 21
37.7835
 31
0.0
  0
LINE
  8
0
 62
     0
 10
14.3817
 20
37.7835
 30
0.0
 11
14.4604
 21
37.7449
 31
0.0
  0
LINE
  8
0
 62
     0
 10
14.4604
 20
37.7449
 30
0.0
 11
14.5358
 21
37.6979
 31
0.0
  0
LINE
  8
0
 62
     0
 10
14.5358
 20
37.6979
 30
0.0
 11
14.6069
 21
37.6417
 31
0.0
  0
LINE
  8
0
 62
     0
 10
14.6069
 20
37.6417
 30
0.0
 11
14.6722
 21
37.5756
 31
0.0
  0
LINE
  8
0
 62
     0
 10
14.6722
 20
37.5756
 30
0.0
 11
14.7308
 21
37.4989
 31
0.0
  0
LINE
  8
0
 62
     0
 10
14.7308
 20
37.4989
 30
0.0
 11
14.7814
 21
37.411
 31
0.0
  0
LINE
  8
0
 62
     0
 10
14.7814
 20
37.411
 30
0.0
 11
14.8228
 21
37.3112
 31
0.0
  0
LINE
  8
0
 62
     0
 10
14.8228
 20
37.3112
 30
0.0
 11
14.8537
 21
37.1989
 31
0.0
  0
LINE
  8
0
 62
     0
 10
14.8537
 20
37.1989
 30
0.0
 11
14.8732
 21
37.0732
 31
0.0
  0
LINE
  8
0
 62
     0
 10
14.8732
 20
37.0732
 30
0.0
 11
14.88
 21
36.9335
 31
0.0
  0
LINE
  8
0
 62
     0
 10
14.88
 20
36.9335
 30
0.0
 11
14.88
 21
35.1493
 31
0.0
  0
LINE
  8
0
 62
     0
 10
14.88
 20
35.1493
 30
0.0
 11
14.3779
 21
35.1493
 31
0.0
  0
LINE
  8
0
 62
     0
 10
14.3779
 20
35.1493
 30
0.0
 11
14.3779
 21
36.8532
 31
0.0
  0
LINE
  8
0
 62
     0
 10
14.3779
 20
36.8532
 30
0.0
 11
14.3706
 21
37.005
 31
0.0
  0
LINE
  8
0
 62
     0
 10
14.3706
 20
37.005
 30
0.0
 11
14.3504
 21
37.1164
 31
0.0
  0
LINE
  8
0
 62
     0
 10
14.3504
 20
37.1164
 30
0.0
 11
14.3214
 21
37.1968
 31
0.0
  0
LINE
  8
0
 62
     0
 10
14.3214
 20
37.1968
 30
0.0
 11
14.2869
 21
37.2557
 31
0.0
  0
LINE
  8
0
 62
     0
 10
14.2869
 20
37.2557
 30
0.0
 11
14.2079
 21
37.3438
 31
0.0
  0
LINE
  8
0
 62
     0
 10
14.2079
 20
37.3438
 30
0.0
 11
14.0968
 21
37.4182
 31
0.0
  0
LINE
  8
0
 62
     0
 10
14.0968
 20
37.4182
 30
0.0
 11
13.9539
 21
37.4697
 31
0.0
  0
LINE
  8
0
 62
     0
 10
13.9539
 20
37.4697
 30
0.0
 11
13.7792
 21
37.489
 31
0.0
  0
LINE
  8
0
 62
     0
 10
13.7792
 20
37.489
 30
0.0
 11
13.6652
 21
37.4808
 31
0.0
  0
LINE
  8
0
 62
     0
 10
13.6652
 20
37.4808
 30
0.0
 11
13.5645
 21
37.4586
 31
0.0
  0
LINE
  8
0
 62
     0
 10
13.5645
 20
37.4586
 30
0.0
 11
13.4767
 21
37.4253
 31
0.0
  0
LINE
  8
0
 62
     0
 10
13.4767
 20
37.4253
 30
0.0
 11
13.4012
 21
37.3843
 31
0.0
  0
LINE
  8
0
 62
     0
 10
13.4012
 20
37.3843
 30
0.0
 11
13.3376
 21
37.3387
 31
0.0
  0
LINE
  8
0
 62
     0
 10
13.3376
 20
37.3387
 30
0.0
 11
13.2853
 21
37.2921
 31
0.0
  0
LINE
  8
0
 62
     0
 10
13.2853
 20
37.2921
 30
0.0
 11
13.244
 21
37.2474
 31
0.0
  0
LINE
  8
0
 62
     0
 10
13.244
 20
37.2474
 30
0.0
 11
13.213
 21
37.2078
 31
0.0
  0
LINE
  8
0
 62
     0
 10
13.213
 20
37.2078
 30
0.0
 11
13.1458
 21
37.0657
 31
0.0
  0
LINE
  8
0
 62
     0
 10
13.1458
 20
37.0657
 30
0.0
 11
13.1112
 21
36.9043
 31
0.0
  0
LINE
  8
0
 62
     0
 10
13.1112
 20
36.9043
 30
0.0
 11
13.0985
 21
36.7518
 31
0.0
  0
LINE
  8
0
 62
     0
 10
13.0985
 20
36.7518
 30
0.0
 11
13.0967
 21
36.6365
 31
0.0
  0
LINE
  8
0
 62
     0
 10
13.0967
 20
36.6365
 30
0.0
 11
13.0967
 21
35.1493
 31
0.0
  0
LINE
  8
0
 62
     0
 10
13.0967
 20
35.1493
 30
0.0
 11
12.5938
 21
35.1493
 31
0.0
  0
LINE
  8
0
 62
     0
 10
12.5938
 20
35.1493
 30
0.0
 11
12.5938
 21
36.9069
 31
0.0
  0
LINE
  8
0
 62
     0
 10
12.5938
 20
36.9069
 30
0.0
 11
12.5848
 21
37.0262
 31
0.0
  0
LINE
  8
0
 62
     0
 10
12.5848
 20
37.0262
 30
0.0
 11
12.5578
 21
37.1364
 31
0.0
  0
LINE
  8
0
 62
     0
 10
12.5578
 20
37.1364
 30
0.0
 11
12.5128
 21
37.2354
 31
0.0
  0
LINE
  8
0
 62
     0
 10
12.5128
 20
37.2354
 30
0.0
 11
12.4495
 21
37.3211
 31
0.0
  0
LINE
  8
0
 62
     0
 10
12.4495
 20
37.3211
 30
0.0
 11
12.3679
 21
37.3914
 31
0.0
  0
LINE
  8
0
 62
     0
 10
12.3679
 20
37.3914
 30
0.0
 11
12.2678
 21
37.4442
 31
0.0
  0
LINE
  8
0
 62
     0
 10
12.2678
 20
37.4442
 30
0.0
 11
12.1491
 21
37.4775
 31
0.0
  0
LINE
  8
0
 62
     0
 10
12.1491
 20
37.4775
 30
0.0
 11
12.0118
 21
37.489
 31
0.0
  0
LINE
  8
0
 62
     0
 10
12.0118
 20
37.489
 30
0.0
 11
11.8921
 21
37.4797
 31
0.0
  0
LINE
  8
0
 62
     0
 10
11.8921
 20
37.4797
 30
0.0
 11
11.7865
 21
37.4547
 31
0.0
  0
LINE
  8
0
 62
     0
 10
11.7865
 20
37.4547
 30
0.0
 11
11.6945
 21
37.4179
 31
0.0
  0
LINE
  8
0
 62
     0
 10
11.6945
 20
37.4179
 30
0.0
 11
11.6159
 21
37.3732
 31
0.0
  0
LINE
  8
0
 62
     0
 10
11.6159
 20
37.3732
 30
0.0
 11
11.5505
 21
37.3249
 31
0.0
  0
LINE
  8
0
 62
     0
 10
11.5505
 20
37.3249
 30
0.0
 11
11.4978
 21
37.2769
 31
0.0
  0
LINE
  8
0
 62
     0
 10
11.4978
 20
37.2769
 30
0.0
 11
11.4576
 21
37.2333
 31
0.0
  0
LINE
  8
0
 62
     0
 10
11.4576
 20
37.2333
 30
0.0
 11
11.4297
 21
37.1981
 31
0.0
  0
LINE
  8
0
 62
     0
 10
11.4297
 20
37.1981
 30
0.0
 11
11.3649
 21
37.0728
 31
0.0
  0
LINE
  8
0
 62
     0
 10
11.3649
 20
37.0728
 30
0.0
 11
11.3301
 21
36.9339
 31
0.0
  0
LINE
  8
0
 62
     0
 10
11.3301
 20
36.9339
 30
0.0
 11
11.3161
 21
36.7922
 31
0.0
  0
LINE
  8
0
 62
     0
 10
11.3161
 20
36.7922
 30
0.0
 11
11.3135
 21
36.6581
 31
0.0
  0
LINE
  8
0
 62
     0
 10
11.3135
 20
36.6581
 30
0.0
 11
11.3135
 21
35.1493
 31
0.0
  0
LINE
  8
0
 62
     0
 10
11.3135
 20
35.1493
 30
0.0
 11
10.8105
 21
35.1493
 31
0.0
  0
LINE
  8
0
 62
     0
 10
10.8105
 20
35.1493
 30
0.0
 11
10.8105
 21
37.451
 31
0.0
  0
LINE
  8
0
 62
     0
 10
16.8594
 20
37.8747
 30
0.0
 11
17.0493
 21
37.8653
 31
0.0
  0
LINE
  8
0
 62
     0
 10
17.0493
 20
37.8653
 30
0.0
 11
17.2207
 21
37.8378
 31
0.0
  0
LINE
  8
0
 62
     0
 10
17.2207
 20
37.8378
 30
0.0
 11
17.3744
 21
37.7939
 31
0.0
  0
LINE
  8
0
 62
     0
 10
17.3744
 20
37.7939
 30
0.0
 11
17.5114
 21
37.7356
 31
0.0
  0
LINE
  8
0
 62
     0
 10
17.5114
 20
37.7356
 30
0.0
 11
17.6325
 21
37.6639
 31
0.0
  0
LINE
  8
0
 62
     0
 10
17.6325
 20
37.6639
 30
0.0
 11
17.7386
 21
37.581
 31
0.0
  0
LINE
  8
0
 62
     0
 10
17.7386
 20
37.581
 30
0.0
 11
17.8304
 21
37.4883
 31
0.0
  0
LINE
  8
0
 62
     0
 10
17.8304
 20
37.4883
 30
0.0
 11
17.909
 21
37.3874
 31
0.0
  0
LINE
  8
0
 62
     0
 10
17.909
 20
37.3874
 30
0.0
 11
17.9751
 21
37.28
 31
0.0
  0
LINE
  8
0
 62
     0
 10
17.9751
 20
37.28
 30
0.0
 11
18.0297
 21
37.1678
 31
0.0
  0
LINE
  8
0
 62
     0
 10
18.0297
 20
37.1678
 30
0.0
 11
18.0735
 21
37.0522
 31
0.0
  0
LINE
  8
0
 62
     0
 10
18.0735
 20
37.0522
 30
0.0
 11
18.1074
 21
36.9351
 31
0.0
  0
LINE
  8
0
 62
     0
 10
18.1074
 20
36.9351
 30
0.0
 11
18.1322
 21
36.8181
 31
0.0
  0
LINE
  8
0
 62
     0
 10
18.1322
 20
36.8181
 30
0.0
 11
18.1489
 21
36.7026
 31
0.0
  0
LINE
  8
0
 62
     0
 10
18.1489
 20
36.7026
 30
0.0
 11
18.1582
 21
36.5906
 31
0.0
  0
LINE
  8
0
 62
     0
 10
18.1582
 20
36.5906
 30
0.0
 11
18.1612
 21
36.4832
 31
0.0
  0
LINE
  8
0
 62
     0
 10
18.1612
 20
36.4832
 30
0.0
 11
18.1406
 21
36.1986
 31
0.0
  0
LINE
  8
0
 62
     0
 10
18.1406
 20
36.1986
 30
0.0
 11
18.0783
 21
35.9325
 31
0.0
  0
LINE
  8
0
 62
     0
 10
18.0783
 20
35.9325
 30
0.0
 11
17.9744
 21
35.6908
 31
0.0
  0
LINE
  8
0
 62
     0
 10
17.9744
 20
35.6908
 30
0.0
 11
17.8283
 21
35.4796
 31
0.0
  0
LINE
  8
0
 62
     0
 10
17.8283
 20
35.4796
 30
0.0
 11
17.6397
 21
35.3049
 31
0.0
  0
LINE
  8
0
 62
     0
 10
17.6397
 20
35.3049
 30
0.0
 11
17.4085
 21
35.1726
 31
0.0
  0
LINE
  8
0
 62
     0
 10
17.4085
 20
35.1726
 30
0.0
 11
17.1342
 21
35.0887
 31
0.0
  0
LINE
  8
0
 62
     0
 10
17.1342
 20
35.0887
 30
0.0
 11
16.8165
 21
35.0596
 31
0.0
  0
LINE
  8
0
 62
     0
 10
16.8165
 20
35.0596
 30
0.0
 11
16.5082
 21
35.0872
 31
0.0
  0
LINE
  8
0
 62
     0
 10
16.5082
 20
35.0872
 30
0.0
 11
16.2418
 21
35.1667
 31
0.0
  0
LINE
  8
0
 62
     0
 10
16.2418
 20
35.1667
 30
0.0
 11
16.0171
 21
35.2931
 31
0.0
  0
LINE
  8
0
 62
     0
 10
16.0171
 20
35.2931
 30
0.0
 11
15.8339
 21
35.461
 31
0.0
  0
LINE
  8
0
 62
     0
 10
15.8339
 20
35.461
 30
0.0
 11
15.6917
 21
35.6653
 31
0.0
  0
LINE
  8
0
 62
     0
 10
15.6917
 20
35.6653
 30
0.0
 11
15.5904
 21
35.9011
 31
0.0
  0
LINE
  8
0
 62
     0
 10
15.5904
 20
35.9011
 30
0.0
 11
15.5299
 21
36.1631
 31
0.0
  0
LINE
  8
0
 62
     0
 10
15.5299
 20
36.1631
 30
0.0
 11
15.5097
 21
36.446
 31
0.0
  0
LINE
  8
0
 62
     0
 10
15.5097
 20
36.446
 30
0.0
 11
15.5135
 21
36.5703
 31
0.0
  0
LINE
  8
0
 62
     0
 10
15.5135
 20
36.5703
 30
0.0
 11
15.525
 21
36.6958
 31
0.0
  0
LINE
  8
0
 62
     0
 10
15.525
 20
36.6958
 30
0.0
 11
15.5449
 21
36.8215
 31
0.0
  0
LINE
  8
0
 62
     0
 10
15.5449
 20
36.8215
 30
0.0
 11
15.5739
 21
36.9461
 31
0.0
  0
LINE
  8
0
 62
     0
 10
15.5739
 20
36.9461
 30
0.0
 11
15.6128
 21
37.0682
 31
0.0
  0
LINE
  8
0
 62
     0
 10
15.6128
 20
37.0682
 30
0.0
 11
15.6618
 21
37.1865
 31
0.0
  0
LINE
  8
0
 62
     0
 10
15.6618
 20
37.1865
 30
0.0
 11
15.7218
 21
37.2997
 31
0.0
  0
LINE
  8
0
 62
     0
 10
15.7218
 20
37.2997
 30
0.0
 11
15.7935
 21
37.4065
 31
0.0
  0
LINE
  8
0
 62
     0
 10
15.7935
 20
37.4065
 30
0.0
 11
15.8774
 21
37.5056
 31
0.0
  0
LINE
  8
0
 62
     0
 10
15.8774
 20
37.5056
 30
0.0
 11
15.974
 21
37.5957
 31
0.0
  0
LINE
  8
0
 62
     0
 10
15.974
 20
37.5957
 30
0.0
 11
16.0843
 21
37.6756
 31
0.0
  0
LINE
  8
0
 62
     0
 10
16.0843
 20
37.6756
 30
0.0
 11
16.2086
 21
37.7438
 31
0.0
  0
LINE
  8
0
 62
     0
 10
16.2086
 20
37.7438
 30
0.0
 11
16.3476
 21
37.7992
 31
0.0
  0
LINE
  8
0
 62
     0
 10
16.3476
 20
37.7992
 30
0.0
 11
16.5019
 21
37.8403
 31
0.0
  0
LINE
  8
0
 62
     0
 10
16.5019
 20
37.8403
 30
0.0
 11
16.6724
 21
37.866
 31
0.0
  0
LINE
  8
0
 62
     0
 10
16.6724
 20
37.866
 30
0.0
 11
16.8594
 21
37.8747
 31
0.0
  0
LINE
  8
0
 62
     0
 10
16.8272
 20
35.4296
 30
0.0
 11
16.9697
 21
35.4428
 31
0.0
  0
LINE
  8
0
 62
     0
 10
16.9697
 20
35.4428
 30
0.0
 11
17.1114
 21
35.4843
 31
0.0
  0
LINE
  8
0
 62
     0
 10
17.1114
 20
35.4843
 30
0.0
 11
17.2469
 21
35.5572
 31
0.0
  0
LINE
  8
0
 62
     0
 10
17.2469
 20
35.5572
 30
0.0
 11
17.3704
 21
35.6646
 31
0.0
  0
LINE
  8
0
 62
     0
 10
17.3704
 20
35.6646
 30
0.0
 11
17.4763
 21
35.8094
 31
0.0
  0
LINE
  8
0
 62
     0
 10
17.4763
 20
35.8094
 30
0.0
 11
17.5589
 21
35.9947
 31
0.0
  0
LINE
  8
0
 62
     0
 10
17.5589
 20
35.9947
 30
0.0
 11
17.6125
 21
36.2235
 31
0.0
  0
LINE
  8
0
 62
     0
 10
17.6125
 20
36.2235
 30
0.0
 11
17.6317
 21
36.4987
 31
0.0
  0
LINE
  8
0
 62
     0
 10
17.6317
 20
36.4987
 30
0.0
 11
17.6175
 21
36.7321
 31
0.0
  0
LINE
  8
0
 62
     0
 10
17.6175
 20
36.7321
 30
0.0
 11
17.5764
 21
36.9357
 31
0.0
  0
LINE
  8
0
 62
     0
 10
17.5764
 20
36.9357
 30
0.0
 11
17.5099
 21
37.1092
 31
0.0
  0
LINE
  8
0
 62
     0
 10
17.5099
 20
37.1092
 30
0.0
 11
17.4199
 21
37.2521
 31
0.0
  0
LINE
  8
0
 62
     0
 10
17.4199
 20
37.2521
 30
0.0
 11
17.3081
 21
37.364
 31
0.0
  0
LINE
  8
0
 62
     0
 10
17.3081
 20
37.364
 30
0.0
 11
17.1762
 21
37.4446
 31
0.0
  0
LINE
  8
0
 62
     0
 10
17.1762
 20
37.4446
 30
0.0
 11
17.0261
 21
37.4932
 31
0.0
  0
LINE
  8
0
 62
     0
 10
17.0261
 20
37.4932
 30
0.0
 11
16.8594
 21
37.5094
 31
0.0
  0
LINE
  8
0
 62
     0
 10
16.8594
 20
37.5094
 30
0.0
 11
16.7324
 21
37.4993
 31
0.0
  0
LINE
  8
0
 62
     0
 10
16.7324
 20
37.4993
 30
0.0
 11
16.5953
 21
37.4651
 31
0.0
  0
LINE
  8
0
 62
     0
 10
16.5953
 20
37.4651
 30
0.0
 11
16.4565
 21
37.4021
 31
0.0
  0
LINE
  8
0
 62
     0
 10
16.4565
 20
37.4021
 30
0.0
 11
16.3244
 21
37.3051
 31
0.0
  0
LINE
  8
0
 62
     0
 10
16.3244
 20
37.3051
 30
0.0
 11
16.2072
 21
37.1692
 31
0.0
  0
LINE
  8
0
 62
     0
 10
16.2072
 20
37.1692
 30
0.0
 11
16.1133
 21
36.9893
 31
0.0
  0
LINE
  8
0
 62
     0
 10
16.1133
 20
36.9893
 30
0.0
 11
16.0508
 21
36.7603
 31
0.0
  0
LINE
  8
0
 62
     0
 10
16.0508
 20
36.7603
 30
0.0
 11
16.0283
 21
36.4772
 31
0.0
  0
LINE
  8
0
 62
     0
 10
16.0283
 20
36.4772
 30
0.0
 11
16.0393
 21
36.2758
 31
0.0
  0
LINE
  8
0
 62
     0
 10
16.0393
 20
36.2758
 30
0.0
 11
16.0735
 21
36.0838
 31
0.0
  0
LINE
  8
0
 62
     0
 10
16.0735
 20
36.0838
 30
0.0
 11
16.1317
 21
35.9064
 31
0.0
  0
LINE
  8
0
 62
     0
 10
16.1317
 20
35.9064
 30
0.0
 11
16.2153
 21
35.7492
 31
0.0
  0
LINE
  8
0
 62
     0
 10
16.2153
 20
35.7492
 30
0.0
 11
16.3254
 21
35.6174
 31
0.0
  0
LINE
  8
0
 62
     0
 10
16.3254
 20
35.6174
 30
0.0
 11
16.4633
 21
35.5167
 31
0.0
  0
LINE
  8
0
 62
     0
 10
16.4633
 20
35.5167
 30
0.0
 11
16.6303
 21
35.4522
 31
0.0
  0
LINE
  8
0
 62
     0
 10
16.6303
 20
35.4522
 30
0.0
 11
16.8272
 21
35.4296
 31
0.0
  0
LINE
  8
0
 62
     0
 10
18.8594
 20
37.2665
 30
0.0
 11
18.8521
 21
37.5383
 31
0.0
  0
LINE
  8
0
 62
     0
 10
18.8521
 20
37.5383
 30
0.0
 11
18.8331
 21
37.8065
 31
0.0
  0
LINE
  8
0
 62
     0
 10
18.8331
 20
37.8065
 30
0.0
 11
19.335
 21
37.8065
 31
0.0
  0
LINE
  8
0
 62
     0
 10
19.335
 20
37.8065
 30
0.0
 11
19.3457
 21
37.2928
 31
0.0
  0
LINE
  8
0
 62
     0
 10
19.3457
 20
37.2928
 30
0.0
 11
19.3914
 21
37.4203
 31
0.0
  0
LINE
  8
0
 62
     0
 10
19.3914
 20
37.4203
 30
0.0
 11
19.4542
 21
37.5264
 31
0.0
  0
LINE
  8
0
 62
     0
 10
19.4542
 20
37.5264
 30
0.0
 11
19.5301
 21
37.6128
 31
0.0
  0
LINE
  8
0
 62
     0
 10
19.5301
 20
37.6128
 30
0.0
 11
19.6158
 21
37.6817
 31
0.0
  0
LINE
  8
0
 62
     0
 10
19.6158
 20
37.6817
 30
0.0
 11
19.7074
 21
37.7346
 31
0.0
  0
LINE
  8
0
 62
     0
 10
19.7074
 20
37.7346
 30
0.0
 11
19.8012
 21
37.7733
 31
0.0
  0
LINE
  8
0
 62
     0
 10
19.8012
 20
37.7733
 30
0.0
 11
19.8935
 21
37.8
 31
0.0
  0
LINE
  8
0
 62
     0
 10
19.8935
 20
37.8
 30
0.0
 11
19.9806
 21
37.8163
 31
0.0
  0
LINE
  8
0
 62
     0
 10
19.9806
 20
37.8163
 30
0.0
 11
20.1767
 21
37.8318
 31
0.0
  0
LINE
  8
0
 62
     0
 10
20.1767
 20
37.8318
 30
0.0
 11
20.3253
 21
37.8269
 31
0.0
  0
LINE
  8
0
 62
     0
 10
20.3253
 20
37.8269
 30
0.0
 11
20.3253
 21
37.3408
 31
0.0
  0
LINE
  8
0
 62
     0
 10
20.3253
 20
37.3408
 30
0.0
 11
20.281
 21
37.3528
 31
0.0
  0
LINE
  8
0
 62
     0
 10
20.281
 20
37.3528
 30
0.0
 11
20.2294
 21
37.3613
 31
0.0
  0
LINE
  8
0
 62
     0
 10
20.2294
 20
37.3613
 30
0.0
 11
20.166
 21
37.3664
 31
0.0
  0
LINE
  8
0
 62
     0
 10
20.166
 20
37.3664
 30
0.0
 11
20.0871
 21
37.3671
 31
0.0
  0
LINE
  8
0
 62
     0
 10
20.0871
 20
37.3671
 30
0.0
 11
19.8869
 21
37.3511
 31
0.0
  0
LINE
  8
0
 62
     0
 10
19.8869
 20
37.3511
 30
0.0
 11
19.7256
 21
37.3053
 31
0.0
  0
LINE
  8
0
 62
     0
 10
19.7256
 20
37.3053
 30
0.0
 11
19.5989
 21
37.2325
 31
0.0
  0
LINE
  8
0
 62
     0
 10
19.5989
 20
37.2325
 30
0.0
 11
19.5036
 21
37.1354
 31
0.0
  0
LINE
  8
0
 62
     0
 10
19.5036
 20
37.1354
 30
0.0
 11
19.4358
 21
37.0169
 31
0.0
  0
LINE
  8
0
 62
     0
 10
19.4358
 20
37.0169
 30
0.0
 11
19.3919
 21
36.8801
 31
0.0
  0
LINE
  8
0
 62
     0
 10
19.3919
 20
36.8801
 30
0.0
 11
19.3683
 21
36.7275
 31
0.0
  0
LINE
  8
0
 62
     0
 10
19.3683
 20
36.7275
 30
0.0
 11
19.3613
 21
36.5622
 31
0.0
  0
LINE
  8
0
 62
     0
 10
19.3613
 20
36.5622
 30
0.0
 11
19.3613
 21
35.1493
 31
0.0
  0
LINE
  8
0
 62
     0
 10
19.3613
 20
35.1493
 30
0.0
 11
18.8594
 21
35.1493
 31
0.0
  0
LINE
  8
0
 62
     0
 10
18.8594
 20
35.1493
 30
0.0
 11
18.8594
 21
37.2665
 31
0.0
  0
LINE
  8
0
 62
     0
 10
21.0871
 20
36.3875
 30
0.0
 11
21.0943
 21
36.1885
 31
0.0
  0
LINE
  8
0
 62
     0
 10
21.0943
 20
36.1885
 30
0.0
 11
21.1249
 21
36.006
 31
0.0
  0
LINE
  8
0
 62
     0
 10
21.1249
 20
36.006
 30
0.0
 11
21.1796
 21
35.8428
 31
0.0
  0
LINE
  8
0
 62
     0
 10
21.1796
 20
35.8428
 30
0.0
 11
21.2594
 21
35.7024
 31
0.0
  0
LINE
  8
0
 62
     0
 10
21.2594
 20
35.7024
 30
0.0
 11
21.3653
 21
35.5876
 31
0.0
  0
LINE
  8
0
 62
     0
 10
21.3653
 20
35.5876
 30
0.0
 11
21.4983
 21
35.5019
 31
0.0
  0
LINE
  8
0
 62
     0
 10
21.4983
 20
35.5019
 30
0.0
 11
21.659
 21
35.4482
 31
0.0
  0
LINE
  8
0
 62
     0
 10
21.659
 20
35.4482
 30
0.0
 11
21.8487
 21
35.4296
 31
0.0
  0
LINE
  8
0
 62
     0
 10
21.8487
 20
35.4296
 30
0.0
 11
21.9667
 21
35.4376
 31
0.0
  0
LINE
  8
0
 62
     0
 10
21.9667
 20
35.4376
 30
0.0
 11
22.0767
 21
35.4621
 31
0.0
  0
LINE
  8
0
 62
     0
 10
22.0767
 20
35.4621
 30
0.0
 11
22.1772
 21
35.5035
 31
0.0
  0
LINE
  8
0
 62
     0
 10
22.1772
 20
35.5035
 30
0.0
 11
22.2664
 21
35.5621
 31
0.0
  0
LINE
  8
0
 62
     0
 10
22.2664
 20
35.5621
 30
0.0
 11
22.3422
 21
35.6388
 31
0.0
  0
LINE
  8
0
 62
     0
 10
22.3422
 20
35.6388
 30
0.0
 11
22.4033
 21
35.7336
 31
0.0
  0
LINE
  8
0
 62
     0
 10
22.4033
 20
35.7336
 30
0.0
 11
22.4478
 21
35.8472
 31
0.0
  0
LINE
  8
0
 62
     0
 10
22.4478
 20
35.8472
 30
0.0
 11
22.4737
 21
35.9803
 31
0.0
  0
LINE
  8
0
 62
     0
 10
22.4737
 20
35.9803
 30
0.0
 11
22.9707
 21
35.9803
 31
0.0
  0
LINE
  8
0
 62
     0
 10
22.9707
 20
35.9803
 30
0.0
 11
22.9553
 21
35.8664
 31
0.0
  0
LINE
  8
0
 62
     0
 10
22.9553
 20
35.8664
 30
0.0
 11
22.9224
 21
35.73
 31
0.0
  0
LINE
  8
0
 62
     0
 10
22.9224
 20
35.73
 30
0.0
 11
22.8568
 21
35.5799
 31
0.0
  0
LINE
  8
0
 62
     0
 10
22.8568
 20
35.5799
 30
0.0
 11
22.7433
 21
35.4247
 31
0.0
  0
LINE
  8
0
 62
     0
 10
22.7433
 20
35.4247
 30
0.0
 11
22.6925
 21
35.3714
 31
0.0
  0
LINE
  8
0
 62
     0
 10
22.6925
 20
35.3714
 30
0.0
 11
22.6262
 21
35.3133
 31
0.0
  0
LINE
  8
0
 62
     0
 10
22.6262
 20
35.3133
 30
0.0
 11
22.5433
 21
35.2542
 31
0.0
  0
LINE
  8
0
 62
     0
 10
22.5433
 20
35.2542
 30
0.0
 11
22.4424
 21
35.1976
 31
0.0
  0
LINE
  8
0
 62
     0
 10
22.4424
 20
35.1976
 30
0.0
 11
22.3217
 21
35.1474
 31
0.0
  0
LINE
  8
0
 62
     0
 10
22.3217
 20
35.1474
 30
0.0
 11
22.18
 21
35.1069
 31
0.0
  0
LINE
  8
0
 62
     0
 10
22.18
 20
35.1069
 30
0.0
 11
22.016
 21
35.0801
 31
0.0
  0
LINE
  8
0
 62
     0
 10
22.016
 20
35.0801
 30
0.0
 11
21.8281
 21
35.0703
 31
0.0
  0
LINE
  8
0
 62
     0
 10
21.8281
 20
35.0703
 30
0.0
 11
21.5347
 21
35.0942
 31
0.0
  0
LINE
  8
0
 62
     0
 10
21.5347
 20
35.0942
 30
0.0
 11
21.2822
 21
35.1644
 31
0.0
  0
LINE
  8
0
 62
     0
 10
21.2822
 20
35.1644
 30
0.0
 11
21.07
 21
35.2788
 31
0.0
  0
LINE
  8
0
 62
     0
 10
21.07
 20
35.2788
 30
0.0
 11
20.8975
 21
35.4347
 31
0.0
  0
LINE
  8
0
 62
     0
 10
20.8975
 20
35.4347
 30
0.0
 11
20.7643
 21
35.6303
 31
0.0
  0
LINE
  8
0
 62
     0
 10
20.7643
 20
35.6303
 30
0.0
 11
20.6697
 21
35.8629
 31
0.0
  0
LINE
  8
0
 62
     0
 10
20.6697
 20
35.8629
 30
0.0
 11
20.6133
 21
36.1304
 31
0.0
  0
LINE
  8
0
 62
     0
 10
20.6133
 20
36.1304
 30
0.0
 11
20.5947
 21
36.4306
 31
0.0
  0
LINE
  8
0
 62
     0
 10
20.5947
 20
36.4306
 30
0.0
 11
20.6
 21
36.6225
 31
0.0
  0
LINE
  8
0
 62
     0
 10
20.6
 20
36.6225
 30
0.0
 11
20.6178
 21
36.8054
 31
0.0
  0
LINE
  8
0
 62
     0
 10
20.6178
 20
36.8054
 30
0.0
 11
20.6501
 21
36.9787
 31
0.0
  0
LINE
  8
0
 62
     0
 10
20.6501
 20
36.9787
 30
0.0
 11
20.6997
 21
37.1417
 31
0.0
  0
LINE
  8
0
 62
     0
 10
20.6997
 20
37.1417
 30
0.0
 11
20.7689
 21
37.2937
 31
0.0
  0
LINE
  8
0
 62
     0
 10
20.7689
 20
37.2937
 30
0.0
 11
20.8601
 21
37.4343
 31
0.0
  0
LINE
  8
0
 62
     0
 10
20.8601
 20
37.4343
 30
0.0
 11
20.9757
 21
37.5628
 31
0.0
  0
LINE
  8
0
 62
     0
 10
20.9757
 20
37.5628
 30
0.0
 11
21.1183
 21
37.6785
 31
0.0
  0
LINE
  8
0
 62
     0
 10
21.1183
 20
37.6785
 30
0.0
 11
21.216
 21
37.7389
 31
0.0
  0
LINE
  8
0
 62
     0
 10
21.216
 20
37.7389
 30
0.0
 11
21.3171
 21
37.7854
 31
0.0
  0
LINE
  8
0
 62
     0
 10
21.3171
 20
37.7854
 30
0.0
 11
21.4189
 21
37.82
 31
0.0
  0
LINE
  8
0
 62
     0
 10
21.4189
 20
37.82
 30
0.0
 11
21.5186
 21
37.8444
 31
0.0
  0
LINE
  8
0
 62
     0
 10
21.5186
 20
37.8444
 30
0.0
 11
21.6137
 21
37.8604
 31
0.0
  0
LINE
  8
0
 62
     0
 10
21.6137
 20
37.8604
 30
0.0
 11
21.7014
 21
37.8696
 31
0.0
  0
LINE
  8
0
 62
     0
 10
21.7014
 20
37.8696
 30
0.0
 11
21.779
 21
37.8737
 31
0.0
  0
LINE
  8
0
 62
     0
 10
21.779
 20
37.8737
 30
0.0
 11
21.8438
 21
37.8747
 31
0.0
  0
LINE
  8
0
 62
     0
 10
21.8438
 20
37.8747
 30
0.0
 11
22.0529
 21
37.8628
 31
0.0
  0
LINE
  8
0
 62
     0
 10
22.0529
 20
37.8628
 30
0.0
 11
22.2356
 21
37.8286
 31
0.0
  0
LINE
  8
0
 62
     0
 10
22.2356
 20
37.8286
 30
0.0
 11
22.3931
 21
37.7747
 31
0.0
  0
LINE
  8
0
 62
     0
 10
22.3931
 20
37.7747
 30
0.0
 11
22.5276
 21
37.7035
 31
0.0
  0
LINE
  8
0
 62
     0
 10
22.5276
 20
37.7035
 30
0.0
 11
22.6408
 21
37.6174
 31
0.0
  0
LINE
  8
0
 62
     0
 10
22.6408
 20
37.6174
 30
0.0
 11
22.7346
 21
37.5188
 31
0.0
  0
LINE
  8
0
 62
     0
 10
22.7346
 20
37.5188
 30
0.0
 11
22.8107
 21
37.4101
 31
0.0
  0
LINE
  8
0
 62
     0
 10
22.8107
 20
37.4101
 30
0.0
 11
22.8708
 21
37.294
 31
0.0
  0
LINE
  8
0
 62
     0
 10
22.8708
 20
37.294
 30
0.0
 11
22.9169
 21
37.1729
 31
0.0
  0
LINE
  8
0
 62
     0
 10
22.9169
 20
37.1729
 30
0.0
 11
22.9507
 21
37.049
 31
0.0
  0
LINE
  8
0
 62
     0
 10
22.9507
 20
37.049
 30
0.0
 11
22.974
 21
36.925
 31
0.0
  0
LINE
  8
0
 62
     0
 10
22.974
 20
36.925
 30
0.0
 11
22.9887
 21
36.8032
 31
0.0
  0
LINE
  8
0
 62
     0
 10
22.9887
 20
36.8032
 30
0.0
 11
22.9965
 21
36.6861
 31
0.0
  0
LINE
  8
0
 62
     0
 10
22.9965
 20
36.6861
 30
0.0
 11
22.9993
 21
36.5761
 31
0.0
  0
LINE
  8
0
 62
     0
 10
22.9993
 20
36.5761
 30
0.0
 11
22.9989
 21
36.4758
 31
0.0
  0
LINE
  8
0
 62
     0
 10
22.9989
 20
36.4758
 30
0.0
 11
22.9971
 21
36.3875
 31
0.0
  0
LINE
  8
0
 62
     0
 10
22.9971
 20
36.3875
 30
0.0
 11
21.0871
 21
36.3875
 31
0.0
  0
LINE
  8
0
 62
     0
 10
22.4893
 20
36.7372
 30
0.0
 11
22.4876
 21
36.8438
 31
0.0
  0
LINE
  8
0
 62
     0
 10
22.4876
 20
36.8438
 30
0.0
 11
22.4751
 21
36.9667
 31
0.0
  0
LINE
  8
0
 62
     0
 10
22.4751
 20
36.9667
 30
0.0
 11
22.4457
 21
37.0965
 31
0.0
  0
LINE
  8
0
 62
     0
 10
22.4457
 20
37.0965
 30
0.0
 11
22.3933
 21
37.2239
 31
0.0
  0
LINE
  8
0
 62
     0
 10
22.3933
 20
37.2239
 30
0.0
 11
22.3118
 21
37.3394
 31
0.0
  0
LINE
  8
0
 62
     0
 10
22.3118
 20
37.3394
 30
0.0
 11
22.1954
 21
37.4336
 31
0.0
  0
LINE
  8
0
 62
     0
 10
22.1954
 20
37.4336
 30
0.0
 11
22.0378
 21
37.4971
 31
0.0
  0
LINE
  8
0
 62
     0
 10
22.0378
 20
37.4971
 30
0.0
 11
21.8331
 21
37.5203
 31
0.0
  0
LINE
  8
0
 62
     0
 10
21.8331
 20
37.5203
 30
0.0
 11
21.7094
 21
37.5107
 31
0.0
  0
LINE
  8
0
 62
     0
 10
21.7094
 20
37.5107
 30
0.0
 11
21.5849
 21
37.4804
 31
0.0
  0
LINE
  8
0
 62
     0
 10
21.5849
 20
37.4804
 30
0.0
 11
21.4643
 21
37.4272
 31
0.0
  0
LINE
  8
0
 62
     0
 10
21.4643
 20
37.4272
 30
0.0
 11
21.3532
 21
37.3488
 31
0.0
  0
LINE
  8
0
 62
     0
 10
21.3532
 20
37.3488
 30
0.0
 11
21.2568
 21
37.2429
 31
0.0
  0
LINE
  8
0
 62
     0
 10
21.2568
 20
37.2429
 30
0.0
 11
21.1803
 21
37.1071
 31
0.0
  0
LINE
  8
0
 62
     0
 10
21.1803
 20
37.1071
 30
0.0
 11
21.1292
 21
36.9394
 31
0.0
  0
LINE
  8
0
 62
     0
 10
21.1292
 20
36.9394
 30
0.0
 11
21.1085
 21
36.7372
 31
0.0
  0
LINE
  8
0
 62
     0
 10
21.1085
 20
36.7372
 30
0.0
 11
22.4893
 21
36.7372
 31
0.0
  0
ENDSEC
  0
EOF
